Ads

The Legendary Theme (Acoustic) (Gitaroo Man) Guitar Tab

Submitted: May 26, 2020 by booboowilson (Last updated: May 30, 2020)

5
Average: 5 (9 votes)
Download | Listen
Game: Gitaroo Man
Composer(s): Tomohiro Harada
Style: Arrangement, Fingerstyle

AutoScroll: Slow | Medium | Fast

My first tab :^)
The fingering could be improved but it's playable.

E|---------------------|---------------------|---------------------|---------------------|
B|-----------0---------|-----------0---------|-----------0---------|-----------0---------|
G|-----------1---------|-----------1---------|-----------2---------|-----------2---------|
D|------2--------------|------2---------2----|------2---------2----|------2--------------|
A|---------------------|---------------------|-0-------------------|-0-------------------|
E|-0-------------------|-0-------------------|---------------------|---------------------|


E|---------------------|---------------------|---------------------|---------------------|
B|-----------0---------|-----------0---------|-----------0---------|-----------0---------|
G|-----------1---------|-----------1---------|-----------2---------|-----------2---------|
D|------2---------2----|------2---------2----|------2---------2----|------2--------------|
A|---------------------|---------------------|-0-------------------|-0-------------------|
E|-0-------------------|-0-------------------|---------------------|---------------------|


E|---------------------|---------------------|---------------------|---------------------|
B|-----------0----4----|-----------0----2----|-----------0---------|-----------0---------|
G|-1----2----4---------|-----------1---------|-----------2---------|-----------2---------|
D|------2--------------|------2--------------|------2---------2----|------2--------------|
A|---------------------|---------------------|-0-------------------|-0-------------------|
E|-0-------------------|-0-------------------|---------------------|---------------------|


E|----------------4----|----------------0----|---------------------|---------------------|
B|-----------0---------|-----------4---------|-----------0---------|-----------0---------|
G|-1----2----1---------|-----------1----2----|-----------2---------|-----------2---------|
D|------2---------2----|------2---------2----|------2---------2----|------2---------2----|
A|---------------------|---------------------|-0-------------------|-0-------------------|
E|-0-------------------|-0-------------------|---------------------|---------------------|


E|---------------------|---------------------|---------------------|---------------------|
B|-----------0----4----|-----------0----6----|-----------6---------|-----------0---------|
G|-1----2----1---------|-----------1----6----|-----------6---------|------4----1----2----|
D|------4--------------|------4--------------|---------------------|---------------------|
A|---------------------|----------------4----|---------------------|---------------------|
E|-4-------------------|-4-------------------|---------------------|---------------------|


E|------0--------------|-----------1---------|------0--------------|-----------0---------|
B|-----------0---------|-----------0---------|-----------1---------|-----------0---------|
G|-----------2---------|-4----2----1----2----|-----------2---------|---------------------|
D|------2---------2----|------2---------2----|------2---------2----|------2--------------|
A|---------------------|---------------------|-0-------------------|-2-------------------|
E|-2-------------------|-2-------------------|---------------------|---------------------|


E|---------------------|---------------------|---------------------|---------------------|
B|-----------0----4----|-----------0----2----|-----------0---------|-----------0---------|
G|-1----2----4---------|-----------1---------|-----------2---------|-----------2---------|
D|------2--------------|------2--------------|------2---------2----|------2--------------|
A|---------------------|---------------------|-0-------------------|-0-------------------|
E|-0-------------------|-0-------------------|---------------------|---------------------|


E|----------------4----|----------------0----|---------------------|---------------------|
B|-----------0---------|-----------4---------|-----------0---------|-----------0---------|
G|-1----2----1---------|-----------1----2----|-----------2---------|-----------2---------|
D|------2---------2----|------2---------2----|------2---------2----|------2---------2----|
A|---------------------|---------------------|-0-------------------|-0-------------------|
E|-0-------------------|-0-------------------|---------------------|---------------------|


E|---------------------|---------------------|---------------------|---------------------|
B|-----------0----4----|-----------0----6----|-----------6---------|-----------0---------|
G|-1----2----1---------|-----------1----6----|-----------6---------|------4----1----2----|
D|------4--------------|------4--------------|---------------------|---------------------|
A|---------------------|----------------4----|---------------------|---------------------|
E|-4-------------------|-4-------------------|---------------------|---------------------|


E|------0--------------|-----------1---------|------0--------------|-2---------0---------|
B|-----------0---------|-----------0---------|-----------1---------|-----------0---------|
G|-----------2---------|-4----2----1----2----|-----------2---------|---------------------|
D|------2---------2----|------2---------2----|------2---------2----|------2--------------|
A|---------------------|---------------------|-0-------------------|-2-------------------|
E|-2-------------------|-2-------------------|---------------------|---------------------|


E|-4-------------------|-0----2----0----4----|-----4---5---------4----|------2----0---------|
B|-0---------0---------|-----------0---------|--------------0---------|-----------0---------|
G|-----------1---------|-----------1---------|--------------1---------|-----------1---------|
D|------0---------0----|------0---------0----|---------0---------0----|------0---------0----|
A|---------------------|---------------------|------------------------|---------------------|
E|-0-------------------|-0-------------------|-0----------------------|-0-------------------|


E|-4-------------------|-0----2----0----4----|-----4---5---------4----|------2----0---------|
B|-2---------2---------|-----------2---------|--------------1---------|-----------1---------|
G|-----------1---------|-----------1---------|--------------2---------|-----------2---------|
D|------2---------2----|------2---------2----|-------------------2----|------2---------2----|
A|-0-------------------|-0-------------------|-0----------------------|-0-------------------|
E|---------------------|---------------------|------------------------|---------------------|


E|-2---------4----2----|----------------1----|----------------2----|-1-------------------|
B|---------------------|------4----0---------|-----------0---------|------4----0---------|
G|-----------4---------|-----------1---------|---------------------|---------------------|
D|------4---------4----|------4---------3----|------3---------3----|------3---------3----|
A|---------------------|---------------------|-4-------------------|-4-------------------|
E|-4-------------------|-4-------------------|---------------------|---------------------|


E|---------------------|------2--------------|-4-------------------|-2---------0---------|
B|-----------0----2----|-----------0---------|-----------1---------|-----------0---------|
G|-2---------2---------|-----------2---------|-----------2---------|-----------2---------|
D|------2---------2----|------2---------2----|------2---------2----|------2--------------|
A|---------------------|---------------------|-0-------------------|-2-------------------|
E|-2-------------------|-2-------------------|---------------------|---------------------|


E|-4-------------------|-0----2----0----4----|-----4---5---------4----|------2----0---------|
B|-0---------0---------|-----------0---------|--------------0---------|-----------0---------|
G|-----------1---------|-----------1---------|--------------1---------|-----------1---------|
D|------0---------0----|------0---------0----|---------0---------0----|------0---------0----|
A|---------------------|---------------------|------------------------|---------------------|
E|-0-------------------|-0-------------------|-0----------------------|-0-------------------|


E|-4-------------------|-0----2----0----4----|-----4---5---------4----|-----------0---------|
B|-2---------2---------|-----------2---------|--------------4---------|------7--------------|
G|-----------1---------|-----------1---------|--------------5---------|-----------5---------|
D|------2---------2----|------2---------2----|---------4---------4----|------4---------4----|
A|-0-------------------|-0-------------------|------------------------|---------------------|
E|---------------------|---------------------|-4----------------------|-4-------------------|


E|-4---------0---------|-0----2----0---------|---------------------|-----------0----2----|
B|-----------2---------|-----------2----4----|------2--------------|-2----4--------------|
G|------1---------1----|------1---------3----|-----------3---------|-----------3---------|
D|---------------------|---------------------|------2---------2----|------2---------2----|
A|-4-------------------|-4-------------------|---------------------|---------------------|
E|---------------------|---------------------|-2-------------------|-2-------------------|


E|-4-------------------|-5-------------------|-2-------------------|---------------------|
B|-----------2---------|-----------2---------|-0-------------------|---------------------|
G|-2---------2---------|-----------2---------|-2-------------------|---------------------|
D|------2---------2----|------2---------2----|-1-------------------|---------------------|
A|---------------------|---------------------|-2-------------------|---------------------|
E|-2-------------------|-2-------------------|---------------------|---------------------|


E|---------------------|---------------------|---------------------|---------------------|
B|-----------0----4----|-----------0----2----|-----------0---------|-----------0---------|
G|-1----2----4---------|-----------1---------|-----------2---------|-----------2---------|
D|------2--------------|------2--------------|------2---------2----|------2--------------|
A|---------------------|---------------------|-0-------------------|-0-------------------|
E|-0-------------------|-0-------------------|---------------------|---------------------|


E|----------------4----|----------------0----|---------------------|---------------------|
B|-----------0---------|-----------4---------|-----------0---------|-----------0---------|
G|-1----2----1---------|-----------1----2----|-----------2---------|-----------2---------|
D|------2---------2----|------2---------2----|------2---------2----|------2---------2----|
A|---------------------|---------------------|-0-------------------|-0-------------------|
E|-0-------------------|-0-------------------|---------------------|---------------------|


E|---------------------|---------------------|---------------------|---------------------|
B|-----------0----4----|-----------0----2----|-----------0---------|-----------0---------|
G|-1----2----4---------|-----------1---------|-----------2---------|-----------2---------|
D|------2--------------|------2--------------|------2---------2----|------2--------------|
A|---------------------|---------------------|-0-------------------|-0-------------------|
E|-0-------------------|-0-------------------|---------------------|---------------------|


E|----------------4----|----------------0----|---------------------|-0---------0---------|
B|-----------0---------|-----------4---------|-----------0---------|-----------0---------|
G|-1----2----1---------|-----------1----2----|-----------2---------|-----------2---------|
D|------2---------2----|------2---------2----|------2---------2----|------2---------2----|
A|---------------------|---------------------|-0-------------------|-0-------------------|
E|-0-------------------|-0-------------------|---------------------|---------------------|


E|-4-------------------|--------|--------|--------|--------|--------|--------|--------|
B|-0-------------------|--------|--------|--------|--------|--------|--------|--------|
G|-1-------------------|--------|--------|--------|--------|--------|--------|--------|
D|-2-------------------|--------|--------|--------|--------|--------|--------|--------|
A|-2-------------------|--------|--------|--------|--------|--------|--------|--------|
E|-0-------------------|--------|--------|--------|--------|--------|--------|--------|
My first tab :^)
The fingering could be improved but it's playable.


E|---------------------|---------------------|---------------------|---------------------|
B|-----------0---------|-----------0---------|-----------0---------|-----------0---------|
G|-----------1---------|-----------1---------|-----------2---------|-----------2---------|
D|------2--------------|------2---------2----|------2---------2----|------2--------------|
A|---------------------|---------------------|-0-------------------|-0-------------------|
E|-0-------------------|-0-------------------|---------------------|---------------------|


E|---------------------|---------------------|---------------------|---------------------|
B|-----------0---------|-----------0---------|-----------0---------|-----------0---------|
G|-----------1---------|-----------1---------|-----------2---------|-----------2---------|
D|------2---------2----|------2---------2----|------2---------2----|------2--------------|
A|---------------------|---------------------|-0-------------------|-0-------------------|
E|-0-------------------|-0-------------------|---------------------|---------------------|


E|---------------------|---------------------|---------------------|---------------------|
B|-----------0----4----|-----------0----2----|-----------0---------|-----------0---------|
G|-1----2----4---------|-----------1---------|-----------2---------|-----------2---------|
D|------2--------------|------2--------------|------2---------2----|------2--------------|
A|---------------------|---------------------|-0-------------------|-0-------------------|
E|-0-------------------|-0-------------------|---------------------|---------------------|


E|----------------4----|----------------0----|---------------------|---------------------|
B|-----------0---------|-----------4---------|-----------0---------|-----------0---------|
G|-1----2----1---------|-----------1----2----|-----------2---------|-----------2---------|
D|------2---------2----|------2---------2----|------2---------2----|------2---------2----|
A|---------------------|---------------------|-0-------------------|-0-------------------|
E|-0-------------------|-0-------------------|---------------------|---------------------|


E|---------------------|---------------------|---------------------|---------------------|
B|-----------0----4----|-----------0----6----|-----------6---------|-----------0---------|
G|-1----2----1---------|-----------1----6----|-----------6---------|------4----1----2----|
D|------4--------------|------4--------------|---------------------|---------------------|
A|---------------------|----------------4----|---------------------|---------------------|
E|-4-------------------|-4-------------------|---------------------|---------------------|


E|------0--------------|-----------1---------|------0--------------|-----------0---------|
B|-----------0---------|-----------0---------|-----------1---------|-----------0---------|
G|-----------2---------|-4----2----1----2----|-----------2---------|---------------------|
D|------2---------2----|------2---------2----|------2---------2----|------2--------------|
A|---------------------|---------------------|-0-------------------|-2-------------------|
E|-2-------------------|-2-------------------|---------------------|---------------------|


E|---------------------|---------------------|---------------------|---------------------|
B|-----------0----4----|-----------0----2----|-----------0---------|-----------0---------|
G|-1----2----4---------|-----------1---------|-----------2---------|-----------2---------|
D|------2--------------|------2--------------|------2---------2----|------2--------------|
A|---------------------|---------------------|-0-------------------|-0-------------------|
E|-0-------------------|-0-------------------|---------------------|---------------------|


E|----------------4----|----------------0----|---------------------|---------------------|
B|-----------0---------|-----------4---------|-----------0---------|-----------0---------|
G|-1----2----1---------|-----------1----2----|-----------2---------|-----------2---------|
D|------2---------2----|------2---------2----|------2---------2----|------2---------2----|
A|---------------------|---------------------|-0-------------------|-0-------------------|
E|-0-------------------|-0-------------------|---------------------|---------------------|


E|---------------------|---------------------|---------------------|---------------------|
B|-----------0----4----|-----------0----6----|-----------6---------|-----------0---------|
G|-1----2----1---------|-----------1----6----|-----------6---------|------4----1----2----|
D|------4--------------|------4--------------|---------------------|---------------------|
A|---------------------|----------------4----|---------------------|---------------------|
E|-4-------------------|-4-------------------|---------------------|---------------------|


E|------0--------------|-----------1---------|------0--------------|-2---------0---------|
B|-----------0---------|-----------0---------|-----------1---------|-----------0---------|
G|-----------2---------|-4----2----1----2----|-----------2---------|---------------------|
D|------2---------2----|------2---------2----|------2---------2----|------2--------------|
A|---------------------|---------------------|-0-------------------|-2-------------------|
E|-2-------------------|-2-------------------|---------------------|---------------------|


E|-4-------------------|-0----2----0----4----|-----4---5---------4----|------2----0---------|
B|-0---------0---------|-----------0---------|--------------0---------|-----------0---------|
G|-----------1---------|-----------1---------|--------------1---------|-----------1---------|
D|------0---------0----|------0---------0----|---------0---------0----|------0---------0----|
A|---------------------|---------------------|------------------------|---------------------|
E|-0-------------------|-0-------------------|-0----------------------|-0-------------------|


E|-4-------------------|-0----2----0----4----|-----4---5---------4----|------2----0---------|
B|-2---------2---------|-----------2---------|--------------1---------|-----------1---------|
G|-----------1---------|-----------1---------|--------------2---------|-----------2---------|
D|------2---------2----|------2---------2----|-------------------2----|------2---------2----|
A|-0-------------------|-0-------------------|-0----------------------|-0-------------------|
E|---------------------|---------------------|------------------------|---------------------|


E|-2---------4----2----|----------------1----|----------------2----|-1-------------------|
B|---------------------|------4----0---------|-----------0---------|------4----0---------|
G|-----------4---------|-----------1---------|---------------------|---------------------|
D|------4---------4----|------4---------3----|------3---------3----|------3---------3----|
A|---------------------|---------------------|-4-------------------|-4-------------------|
E|-4-------------------|-4-------------------|---------------------|---------------------|


E|---------------------|------2--------------|-4-------------------|-2---------0---------|
B|-----------0----2----|-----------0---------|-----------1---------|-----------0---------|
G|-2---------2---------|-----------2---------|-----------2---------|-----------2---------|
D|------2---------2----|------2---------2----|------2---------2----|------2--------------|
A|---------------------|---------------------|-0-------------------|-2-------------------|
E|-2-------------------|-2-------------------|---------------------|---------------------|


E|-4-------------------|-0----2----0----4----|-----4---5---------4----|------2----0---------|
B|-0---------0---------|-----------0---------|--------------0---------|-----------0---------|
G|-----------1---------|-----------1---------|--------------1---------|-----------1---------|
D|------0---------0----|------0---------0----|---------0---------0----|------0---------0----|
A|---------------------|---------------------|------------------------|---------------------|
E|-0-------------------|-0-------------------|-0----------------------|-0-------------------|


E|-4-------------------|-0----2----0----4----|-----4---5---------4----|-----------0---------|
B|-2---------2---------|-----------2---------|--------------4---------|------7--------------|
G|-----------1---------|-----------1---------|--------------5---------|-----------5---------|
D|------2---------2----|------2---------2----|---------4---------4----|------4---------4----|
A|-0-------------------|-0-------------------|------------------------|---------------------|
E|---------------------|---------------------|-4----------------------|-4-------------------|


E|-4---------0---------|-0----2----0---------|---------------------|-----------0----2----|
B|-----------2---------|-----------2----4----|------2--------------|-2----4--------------|
G|------1---------1----|------1---------3----|-----------3---------|-----------3---------|
D|---------------------|---------------------|------2---------2----|------2---------2----|
A|-4-------------------|-4-------------------|---------------------|---------------------|
E|---------------------|---------------------|-2-------------------|-2-------------------|


E|-4-------------------|-5-------------------|-2-------------------|---------------------|
B|-----------2---------|-----------2---------|-0-------------------|---------------------|
G|-2---------2---------|-----------2---------|-2-------------------|---------------------|
D|------2---------2----|------2---------2----|-1-------------------|---------------------|
A|---------------------|---------------------|-2-------------------|---------------------|
E|-2-------------------|-2-------------------|---------------------|---------------------|


E|---------------------|---------------------|---------------------|---------------------|
B|-----------0----4----|-----------0----2----|-----------0---------|-----------0---------|
G|-1----2----4---------|-----------1---------|-----------2---------|-----------2---------|
D|------2--------------|------2--------------|------2---------2----|------2--------------|
A|---------------------|---------------------|-0-------------------|-0-------------------|
E|-0-------------------|-0-------------------|---------------------|---------------------|


E|----------------4----|----------------0----|---------------------|---------------------|
B|-----------0---------|-----------4---------|-----------0---------|-----------0---------|
G|-1----2----1---------|-----------1----2----|-----------2---------|-----------2---------|
D|------2---------2----|------2---------2----|------2---------2----|------2---------2----|
A|---------------------|---------------------|-0-------------------|-0-------------------|
E|-0-------------------|-0-------------------|---------------------|---------------------|


E|---------------------|---------------------|---------------------|---------------------|
B|-----------0----4----|-----------0----2----|-----------0---------|-----------0---------|
G|-1----2----4---------|-----------1---------|-----------2---------|-----------2---------|
D|------2--------------|------2--------------|------2---------2----|------2--------------|
A|---------------------|---------------------|-0-------------------|-0-------------------|
E|-0-------------------|-0-------------------|---------------------|---------------------|


E|----------------4----|----------------0----|---------------------|-0---------0---------|
B|-----------0---------|-----------4---------|-----------0---------|-----------0---------|
G|-1----2----1---------|-----------1----2----|-----------2---------|-----------2---------|
D|------2---------2----|------2---------2----|------2---------2----|------2---------2----|
A|---------------------|---------------------|-0-------------------|-0-------------------|
E|-0-------------------|-0-------------------|---------------------|---------------------|


E|-4-------------------|--------|--------|--------|--------|--------|--------|--------|
B|-0-------------------|--------|--------|--------|--------|--------|--------|--------|
G|-1-------------------|--------|--------|--------|--------|--------|--------|--------|
D|-2-------------------|--------|--------|--------|--------|--------|--------|--------|
A|-2-------------------|--------|--------|--------|--------|--------|--------|--------|
E|-0-------------------|--------|--------|--------|--------|--------|--------|--------|
Login or Register to remove this ad.

6 comments on The Legendary Theme (Acoustic)

What a wonderful first tab!

5

What a wonderful first tab! Hope to see many more.

Thank you! I tabbed it for my

Thank you! I tabbed it for my girlfriend.

I forgot to mention that I like to put a capo on the 5th fret. Some of the notes are hard reach otherwise.

Don't sell yourself short!

5

This is a great solo guitar arrangement. You are the true Gitaroo Man!

Thank you!

Thank you!

I am not familiar with

5

I am not familiar with Gitaroo Man, but I really enjoyed playing this :D

You are the true Gitaroo man!

5

You are the true Gitaroo man!