Ads

Omae no Daiji na Renchuu Nara Iru daro Omae no Naka ni (Gintama) Guitar Tab

Submitted: Mar 02, 2012 by jiyeonn (Last updated: Oct 13, 2012)

5
Average: 5 (4 votes)
Download | Listen
Game: Gintama
Composer(s): Audio Highs
Style: Arrangement, Fingerstyle

AutoScroll: Slow | Medium | Fast
Omae no Daiji na Renchuu Nara Iru daro Omae no Naka ni
Gintama OST
Composed by Audio Highs

Tabbed by J. Ho, 01 Mar 2012
Tuning: Standard EADGBE
Tempo: 75

E|--------|-0----0-----5----0--|-------------|-----------3-----1---|-0----------0---1---3---|
B|--------|-1----1-------------|-3-----------|-3----0--------------|-1----------------------|
G|--------|-2------------------|------4------|-0----0--------------|-0----------------------|
D|--------|--------------------|-------------|---------------------|------------------------|
A|--------|-0------------------|-------------|-2-------------------|-3----------------------|
E|--------|--------------------|-3-----------|---------------------|------------------------|


E|-0----0-----5----0--|-------------|--------------------0---1---|-0------|-0----0-----5----0--|
B|-1----1-------------|-3-----------|-3---------3----3-----------|-0------|-1----1-------------|
G|-2------------------|------4------|----------------------------|-1------|-2------------------|
D|--------------------|-------------|-0--------------------------|-2------|--------------------|
A|-0------------------|-------------|------2---------------------|-2------|-0------------------|
E|--------------------|-3-----------|-----------3----------------|-0------|--------------------|


E|-------------|-----------3-----1---|-0----------0---1---3---|-0----0-----5----0--|
B|-3-----------|-3----0--------------|-1----------------------|-1----1-------------|
G|------4------|-0----0--------------|-0----------------------|-2------------------|
D|-------------|---------------------|------------------------|--------------------|
A|-------------|-2-------------------|-3----------------------|-0------------------|
E|-3-----------|---------------------|------------------------|--------------------|


E|-------------|--------------------0---1---|-0-----------|-----0---1---0--------------|
B|-3-----------|-3---------3----3-----------|-0-----------|-3--------------------------|
G|------4------|----------------------------|-1-----------|-----------------------2----|
D|-------------|-0--------------------------|-2-----------|------------------2---------|
A|-------------|------2---------------------|-2-----------|-------------0--------------|
E|-3-----------|-----------3----------------|-0-----------|----------------------------|


E|-0---1---3---0--------------|--------------------0-------|-0-----0-----0-----0--------------|
B|----------------------------|------3---------3-------3---|----3-----3-----3-----------------|
G|-----------------------0----|-0--------------------------|----------------------------------|
D|------------------0---------|-----------0----------------|-----------------------------2----|
A|----------------------------|----------------------------|------------------------2---------|
E|-------------3--------------|------3---------------------|-------------------0--------------|


E|-----0---1---0--------------|-0---1---3---0--------------|------0------------1----|
B|-3--------------------------|----------------------------|---------3--------------|
G|-----------------------2----|-----------------------0----|-0----0-------0---------|
D|------------------2---------|------------------0---------|------------------------|
A|-------------0--------------|----------------------------|---------2--------------|
E|----------------------------|-------------3--------------|------------------------|


E|-1----0--0--------------|------0----------|-0----0-----5----0--|-------------|-----------3-----1---|
B|------------------------|-----------------|-1----1-------------|-3-----------|-3----0--------------|
G|-------------------1----|-1---------------|-2------------------|------4------|-0----0--------------|
D|------------------------|-----------2-----|--------------------|-------------|---------------------|
A|--------------2---------|------0----------|-0------------------|-------------|-2-------------------|
E|---------0--------------|-----------------|--------------------|-3-----------|---------------------|


E|-0----------0---1---3---|-0----0-----5----0--|-------------|--------------------0---1---|
B|-1----------------------|-1----1-------------|-3-----------|-3---------3----3-----------|
G|-0----------------------|-2------------------|------4------|----------------------------|
D|------------------------|--------------------|-------------|-0--------------------------|
A|-3----------------------|-0------------------|-------------|------2---------------------|
E|------------------------|--------------------|-3-----------|-----------3----------------|


E|-0------|
B|-0------|
G|-1------|
D|-2------|
A|-2------|
E|-0------|



Login or Register to remove this ad.

4 comments on Omae no Daiji na Renchuu Nara Iru daro Omae no Naka ni

Great job!

Great job!

ahh the worst thing about that tab is that...

5

you love to play it, it's simple, sounds great....but it's so saaaaaad ;(

Kamagata Eiichi isn't the

Kamagata Eiichi isn't the composer, Audio Highs is.

Thanks, I looked it up to

Thanks, I looked it up to confirm that you were right, and I changed it. (I didn't update the files in the download link. The submitter will have to do that if they want to.)