Ads

Mukashi no Yuujin ga Kawarazu ni iru Toiu no mo Waruku nai Mono da na (Gintama) Guitar Tab

Submitted: Jan 05, 2015 by Spellbound66623

5
Average: 5 (1 vote)
Download | Listen
Game: Gintama
Composer(s): Audio Highs
Style: Transcription

AutoScroll: Slow | Medium | Fast
Mukashi no Yuujin ga Kawarazu ni iru Toiu no mo Waruku nai Mono da na...
Gintama
Composed by Kamagata Eiichi
12/30/14
Tabbed By:SpellBound666

e---------------------------------------------
B-8--10--12---13-12---12-13----12-10----12-10-
G---------------------------------------------
D---------------------------------------------
A---------------------------------------------
E---------------------------------------------

e---------------------------------------------
B-15-13-12-10--8----7-8-10----12-12-----------
G---------------------------------------------
D---------------------------------------------
A---------------------------------------------
E---------------------------------------------

e------------------
B-10----8-7----7-8-
G------------------
D------------------
A------------------
E------------------

e---------------------------------------------
B-8--10--12---13-12---12-13----12-10----12-10-
G---------------------------------------------
D---------------------------------------------
A---------------------------------------------
E---------------------------------------------

e---------------------------------------------
B-15-13-12-10--7s8----7-8-10----12-12---------
G---------------------------------------------
D---------------------------------------------
A---------------------------------------------
E---------------------------------------------

e------------------
B-10----8-7----7-8-
G------------------
D------------------
A------------------
E------------------

e--------------------
B-5--7--8---7-8---10-
G--------------------
D--------------------
A--------------------
E--------------------

e------------------------
B-7--8--10---8-10--10h12-
G------------------------
D------------------------
A------------------------
E------------------------

e-----------------------
B-12--13--15--13--12--8-
G-----------------------
D-----------------------
A-----------------------
E-----------------------

e----------------------
B-8--10-----14---15-15-
G----------------------
D----------------------
A----------------------
E----------------------

1:37(Flute)
e--------------------------
B-8I---10I---12I---13--12I-
G--------------------------
D--------------------------
A--------------------------
E--------------------------

e-----------------------
B-13I---12-10I---12-10I-
G-----------------------
D-----------------------
A-----------------------
E-----------------------

e----------------------
B-8I---10-8--10-12--8I-
G----------------------
D----------------------
A----------------------
E----------------------

e---------------
B-10--8-7I---8I-
G---------------
D---------------
A---------------
E---------------

e-------------
B-10--8-7---8-
G-------------
D-------------
A-------------
E-------------

e---------------
B-10--8-7----8I-
G---------------
D---------------
A---------------
E---------------

2:07(Guitar)Play X2
e----------------------
B-8-10---15-13-12-10-8-
G----------------------
D----------------------
A----------------------
E----------------------

(I) Let Ring
(S) Slide
(H) Hammer On


Login or Register to remove this ad.

3 comments on Mukashi no Yuujin ga Kawarazu ni iru Toiu no mo Waruku nai Mono da na

that is one long ass song

that is one long ass song name

Should probably read to iu

Should probably read to iu (it's two words).

I considered that before

I considered that before making the title, but the other version on the site and the videos on youtube had it as one word; it's easier to search this way :)