Ads

Level 1 (Ghouls n Ghosts) Guitar Tab

Submitted: Jan 19, 2010 by LTRobson (Last updated: Jan 19, 2010)

5
Average: 5 (1 vote)
Download | Listen
Game: Ghouls n Ghosts
Composer(s): Tamayo Kawamoto
Style: Fingerstyle, Transcription

AutoScroll: Slow | Medium | Fast
Ghouls 'n Ghosts - Level 1 (Mega Drive)
Tabbed by LTRobson Jan 2010

Standard tuning

|----------------------------------------------------------
|-5------6------5------4------5---6---5---4---5-5-6--5-5-4-
|-2------3------2------1------2---3---2---1---2-2-3--2-2-1-
|----------------------------------------------------------
|----------------------------------------------------------
|----------------------------------------------------------

|----------------
|-5--4-5-6-7-8-9-
|----------------
|-2--1-2-3-4-5-6-
|----------------
|----------------

Theme
|----------------------------------------------4-
|---10----9--8---7--6--4-5--4-5--4-5--4-5-4-5----
|---9-----9--9---9--9--4-4--4-4--4-4-------------
|------------------------------------------------
|-0----------------------------------------------
|----------------------0-------------------------

|----------------------------------------------4-
|---10----9--8---7--6--4-5--4-5--4-5--4-5-4-5----
|---9-----9--9---9--9--4-4--4-4--4-4-------------
|------------------------------------------------
|-0----------------------------------------------
|----------------------0-------------------------

|------------------------------------------------------
|-9-10--9-10----9-10--9-10----9-10--9-10----9-10--9-10-
|-9-9---9-9-----9-9---9-9-----9-9---9-9-----9-9---9-9--
|------------10------------11------------12------------
|------------------------------------------------------
|------------------------------------------------------

|----------------------------------------------------
|-4--5-5-5---4--5-5-5---4--5-5-5---4--5--4-5-6-7-8-9- Back to Theme
|----4-4-4---2--4-4-4---2--4-4-4---2--4--------------
|----6-6-6---3--6-6-6---3--6-6-6---3--6--1-2-3-4-5-6-
|----------------------------------------------------
|----------------------------------------------------

The octaves part at the end is really this (decending bass)
but it's quite hard to play
|---0-1-2-3-4------------------
|-4-------------10-----9-8-ect-
|---------------9------9-9-----
|-2-1-0------------------------
|-------4-3-2-0----------------
|------------------------------
Login or Register to remove this ad.

13 comments on Level 1

fucking great

5

always puts a smile on my face when I play it and it sounds right on

:D glad you like it. Wish

:D glad you like it.

Wish there was a way to play the bass too at the same time. It would sound much better. I've only implied the open A and E strings.

it's spot on

but im sloppy with chords

any suggestions


ON

how to get better?

See the bits with 2 notes at

See the bits with 2 notes at once - just play the top line for now. Build it up after you master that.

i have learnt

have

learnt single notes rather well

single as in


one

at a time played instantaneously forthwith, approximately and assuredly masterful, in

opinion

, at the playing a single note at a time but not accompanying another as well.

erm possibly, yes.

erm

possibly, yes.

Have you been smoking your

Have you been smoking your English lit homework?

smoking while

as opposed to smoking it, english major, sophomore. chords?

chords?

the bane of my adaquecy, do tell the tricks of your trade, my good LTRobson, auriplane, or any other willing to enhance my guitar materia (FFVII)

Chords are built from sound

Chords are built from sound practice. Sound by meaning you fret the chord and carefully and observantly pluck each string of the chord to assure that no abnormal sounds exist. Continue the exercise of this method for every chord until you gain what is referred to as confidence.

thanks, that helps

but you can shove your confidence