Ads

Bokura wa Minna Ikiteiru (Ghost in the Shell: Stand Alone Complex) Guitar Tab

Submitted: Oct 18, 2013 by corntastic

5
Average: 5 (2 votes)
Download | Listen
Game: Ghost in the Shell: Stand Alone Complex
Composer(s): Yoko Kanno
Style: Transcription

AutoScroll: Slow | Medium | Fast
Bokura Wa Minna Ikiteiru
Ghost in the Shell: Stand Alone Complex
Yoko Kanno
corntastic
17 10 2013

WARNING: the Youtube link I provided, being Youtube, contains massive spoilers. If you don't know what song this is, it's the song the
Tachikomas sing together at the end of the second season. So if you haven't seen the whole season, don't even look at the page.

e-------------------------------------------------------------------------
B----------9--9--10--12---------10--------9-9-10-10-9-9-------------------
G--9--9-11--------------9g11-------11--11---------------11--9-------------
D-------------------------------------------------------------------------
A-------------------------------------------------------------------------
E------------------------------------------------------------------------- x2

e--9----------9-----------------------------------------------------------
B-----10---10----12-10-9-10-12----9-9-9-9-----10--9-----------------------
G--------9--------------------------------11------------------------------
D-------------------------------------------------------------------------
A-------------------------------------------------------------------------
E-------------------------------------------------------------------------

e--9--11-9----------------------------------------------------------------
B----------12-12--12-9-------------9--10--12------------------------------
G-------------------------11-11-11----------------------------------------
D-------------------------------------------------------------------------
A-------------------------------------------------------------------------
E-------------------------------------------------------------------------

e---------------------------------9----9----------------------------------
B--------9-----------10--------12---12---12----9--------------------------
G-----------9------------11-----------------------------------------------
D--9-9-9-------9-9-9------------------------------------------------------
A-------------------------------------------------------------------------
E-------------------------------------------------------------------------


e-------------------------------------------------------------------------
B--10-10-9-9----------9---------------------------------------------------
G-------------11-9-11---11-9---------------8--9---------------------------
D----------------------------11-9-11-9-11---------------------------------
A-------------------------------------------------------------------------
E-------------------------------------------------------------------------
Login or Register to remove this ad.