Ads

Outset Island - Guitar Duet (Legend of Zelda: The Wind Waker) Guitar Tab

Submitted: Apr 30, 2008 by Kabukibear (Last updated: Oct 16, 2009)

4.833335
Average: 4.8 (6 votes)
Download | Listen
Game: Legend of Zelda: The Wind Waker
Composer(s): Koji Kondo, Hajime Wakai, Toru Minegishi, Kenta Nagata
Style: 2 or more instruments, Arrangement, Fingerstyle
Series: Legend of Zelda

AutoScroll: Slow | Medium | Fast
Outset Island
~The Legend of Zelda: The Wind Waker~                               
Composed by: Koji Kondo
Arranged by: Justin Lincoln

Guitar 1

Lively
                             Rall. - - - - - - - - - - - - ,
                                                        ^                 
     E  E  E  E  H           E  E  E  E  E  E  E  E     W                 
E||-----2-----------------|--------------0-----0--2--|--3----------------|
B||--3-----3--------------|-----0--2--3-----3--------|--2----------------|
G||-----------2-----------|--------------------------|-------------------|
D||--------------4--------|--------------------------|-------------------|
A||-----------------------|--------------------------|-------------------|
E||-----------------------|--------------------------|-------------------|

  (A Tempo)
  H.           E  E     E  E  E  E  E  E  E  E     E  E  E  E  E  E  E  E   
------------------5--|--2--------0--2--------5--|--2--------0-----------5--|
---------------------|--------------------------|-----0--0-----7-----------|
---------------------|-----------------2--2-----|-----------------6--6--6--|
---------------------|-----4--4-----------------|--------------------------|
---------------------|--------------------------|--------------------------|
---------------------|--------------------------|--------------------------|


  Q.     E  Q.     E     Q.     E  Q.     E     E  E  E  E  E  E  E  E   
--9------7--5------3--|--2---------0------5--|--2--------0--2--------5--|
----------------------|---------3------------|--------------------------|
--9------7--6------4--|--2---------0---------|-----------------2--2-----|
----------------------|---------4------------|-----4--4-----------------|
----------------------|----------------------|--------------------------|
----------------------|----------------------|--------------------------|


  E  E  E  E  E  E  E  E     Q.     E   Q.      E     Q.     E  H         
--2--------0-----------5--|--9------7--10------10--|--5------7--5--------|
-----0--0-----7-----------|------------------------|--5---------5--------|
-----------------6--6--6--|--9------7--11------11--|---------------------|
--------------------------|------------------------|---------------------|
--------------------------|------------------------|---------------------|
--------------------------|------------------------|---------------------|


  H        Q.     E     H        Q.     S S    H        E  E  E  E   
------------------0--|----------------------|-----------------------|
--3--------0---------|--3-------------------|--------------------3--|
---------------------|-----------2------2-4-|--2--------2-----2-----|
---------------------|----------------------|--------------0--------|
---------------------|----------------------|-----------------------|
---------------------|----------------------|-----------------------|


  E  E  E  E  H           H        Q.     E     H        Q.     S S  
--2--------------------|--2--------0------3--|--2-----------------0-|
-----2-----------------|--3--------0------5--|--3--------3------3---|
--------2--------------|---------------------|-----------2------2---|
-----------4--L--------|---------------------|----------------------|
-----------------------|---------------------|----------------------|
-----------------------|---------------------|----------------------|


  H        E  E  E  E     Q.     E  H           E  E  E  E  E  E  E  E   
--0-----------------0--|--0------------------|-----0--0-----------------|
-----------3--2--3--2--|--2------------------|-----2--2--------2--2-----|
--2--------4--2--4-----|---------2--L--------|-----------------2--2-----|
-----------------------|---------2--L--------|-----------------4--4-----|
-----------------------|---------------------|--------------------------|
-----------------------|---------------------|--------------------------|


  E  E  E  E  E  E  E  E     E  E  E  E  E  E  E  E     E  E  E  E  Q    Q     
--------------------------|--------------------------|-------------------5----|
-----3--3--------0--0-----|-----2--2-----------------|-----0--0---------------|
-----4--4--------0--0-----|-----2--2--------2--2-----|-----0--0-----0---------|
-----5--5--------2--2-----|-----4--4--------4--4-----|-----2--2-----2---------|
--------------------------|-----------------5--5-----|--------------4---------|
--------------------------|--------------------------|------------------------|


  H.           Q       H.           Q       H.           Q     
--2------------0----|--2------------5----|--2------------0----|
--3-----------------|--2-----------------|--0-----------------|
--------------------|--------------------|--------------------|
--------------------|--------------------|--------------------|
--------------------|--------------------|--------------------|
--------------------|--------------------|--------------------|


  W                     W                   W                 
--2----------------||--------------------|-------------------|
--2----------------||--------------------|-------------------|
-------------------||*-------------------|-------------------|
-------------------||*-------------------|-------------------|
-------------------||--------------------|-------------------|
-------------------||--------------------|-------------------|


  E  E  E  E  Q    E  S S    E  E  E  E  Q    Q       E  E  E  E  Q    E  S S  
--------------------------|------------------------|--------------------------|
-----3--------------------|------------------------|-----------0--------------|
--2-----2-----------------|------------------------|--2--2--2-----------------|
-----------4--0-------0-2-|--4--0--0--2--4----2----|--------------0-------0-2-|
--------------------------|------------------------|--------------------------|
--------------------------|------------------------|--------------------------|


  E  E  E  E  Q    Q        E   E   E  E  Q    E  S S    E  E  E  E  Q    Q     
------------------------|------10---------------------|------------------------|
------------------------|--10------10--7--------------|--7-----------7---------|
-----------0------------|-----------------7-------7-9-|-----7--7--9-------9----|
--4--4--4-----4----2----|-----------------------------|------------------------|
------------------------|-----------------------------|------------------------|
------------------------|-----------------------------|------------------------|


  E  E  E  E  Q    E  S S    E  E  E  E  Q    Q       E  E  E  E  E  E  E  E   
--5--7--5-----------------|--5--5--5--7--5----3----|--------------------------|
-----------7----------7-8-|--7--7--7--8--7----5----|-----------------------3--|
--------------7-------7---|------------------------|--2--2--2--2--2-----2-----|
--------------------------|------------------------|-----------------0--------|
--------------------------|------------------------|--------------------------|
--------------------------|------------------------|--------------------------|


  E  E  E  E  Q    Q       E  E  E  E  E  E  E  E     E  E  E  E  Q    Q     
--2---------------------|--------------------------|--2---------------------|
-----3------------------|-----------------------3--|-----3------------------|
--------2---------------|--2--2--2--2--2-----2-----|--------2---------------|
-----------4--L---------|-----------------0--------|-----------4--L---------|
------------------------|--------------------------|------------------------|
------------------------|--------------------------|------------------------|


   E   E   E  E  E.  S E  E     T T Q    T T E  Q    E  E   
------10---------------------|--5-7-5----3-5-3--L----2--0--|
--10------10--7--5---7-L--8--|-----------------------------|
-----------------------------|-----------------------------|
-----------------------------|-----------------------------|
-----------------------------|-----------------------------|
-----------------------------|-----------------------------|


  E  Q.     E  E  E  E     Q.     E  H           E  E  E  E  E  E  E  E   
--2------------------2--|--0------------------|-----0--0-----------------|
-----3------3--2--3--3--|--2------------------|-----2--2--------2--2-----|
-----4------4--2--4-----|---------2--L--------|-----------------2--2-----|
------------------------|---------2--L--------|-----------------4--4-----|
------------------------|---------------------|--------------------------|
------------------------|---------------------|--------------------------|


  E  E  E  E  E  E  E  E     E  E  E  E  E  E  E  E   
--------------------------|--------------------------|
-----3--3--------0--0-----|-----2--2-----------------|
-----4--4--------0--0-----|-----2--2--------2--2-----|
-----5--5--------2--2-----|-----4--4--------4--4-----|
--------------------------|-----------------5--5-----|
--------------------------|--------------------------|


  E  E  E  E  E  E  E  S S    W                   W                 
---------------------------|-------------------|-------------------|
-----0--0------------------|-------------------|-------------------|
-----0--0--------0--0--2-0-|-------------------|-------------------|
-----2--2--------2--2------|--4----------------|--2----------------|
-----------------4--4------|--5----------------|--4----------------|
---------------------------|-------------------|-------------------|


  W                   W                     W                  
-------------------|--------------------||-------------------||
-------------------|--------------------||-------------------||
-------------------|-------------------*||-------------------||
--0----------------|--2----------------*||--4----------------||
--2----------------|--4-----------------||-------------------||
-------------------|--------------------||-------------------||




Duration Legend
---------------
W - whole
H - half
Q - quarter
E - 8th
S - 16th
T - 32nd
X - 64th
. - note dotted
|-n-|  - n-tuplets


Tablature Legend
----------------
L - tied note
^ - brush up
Rall. - Gradually slow down
A Tempo - Play at the tempo the piece originally started with

============================================================================

Outset Island                                   
~The Legend of Zelda: The Wind Waker~
Composed by: Koji Kondo
Arranged by: Justin Lincoln

Guitar 2

Lively
                                Rall. - - - - - - - - - -,
                                                      ^                 
     E  E  E  E  E  E  E  E     Q.     E  H           W                 
E||--------------------------|---------------------|--0----------------|
B||-----3--------------------|---------------------|-------------------|
G||--2-----2-----------------|---------------------|--0----------------|
D||-----------4--0--------0--|---------------------|-------------------|
A||--------------------0-----|------------0--------|--0----------------|
D||--0--------------4--------|--2------2-----------|-------------------|

  (A Tempo)
  E  E  E  E  E  E  E  E     E  E  E  E  E  E  E  E   
--------------------------|--------------------------|
--------------------------|--------------------------|
--------------------------|--------------------------|
-----0--0--------0--0-----|-----0--0--------4--4--0--|
-----------0-----------0--|-----------0--------------|
--0-----------0-----------|--0-----------4-----------|


  E  E  E  E  E  E  E  E     E  E  E  E  E  E  E  E   
--------------------------|--------------------------|
--------------------------|-----------------0--0-----|
-----0--0--------2--2-----|--------------------------|
-----------0--------------|-----4--4--0--------------|
--------------0-----------|--------------2--------2--|
--5--------------------5--|--4-----------------------|


  E  E  E  E  E  E  E  E     E  E  E  E  E  E  E  E   
--------------------------|--------------------------|
--------------------------|--------------------------|
-----------------2--2-----|--------------------------|
-----2--2-----------------|-----0--0--------4--4--0--|
--------------0--------0--|-----------0--------------|
--2--------2--------------|--0-----------4-----------|


  E  E  E  E  E  E  E  E     E  E  E  E  E  E  E  E   
--------------------------|--------------------------|
--------------------------|-----------------0--0-----|
-----0--0--------2--2-----|--------------------------|
-----------0--------------|-----4--4--------------4--|
--------------0-----------|--------------2-----------|
--5--------------------5--|--4--------4--------------|


  E  E  E  E  E  E  E  E     E  E  E  E  E  E  E  E   
--------------------------|--------------------------|
--------------------------|--------------------------|
-----------------2--2-----|-----0--0--------0--0-----|
-----2--2-----------------|-----------0-----------0--|
-----------2--0--------0--|--------------------------|
--2-----------------------|--5-----------5-----------|


  E  E  E  E  E  E  E  E     E  E  E  E  E  E  E  E   
--------------------------|--------------------------|
-----1--1--------1--1-----|--------------------------|
-----------0-----------0--|--------------------------|
--------------------------|-----4--4--0-----4--4--0--|
--3-----------3-----------|--------------------------|
--------------------------|--4-----------4-----------|


  E  E  E  E  E  E  E  E     E  E  E  E  E  E  E  E   
--------------------------|--------------------------|
-----0--0--------0--0-----|--------------------------|
--------------------------|--------------------------|
-----------4-----------4--|-----2--2--------2--2-----|
--2-----------2-----------|-----------2-----------2--|
--------------------------|--2-----------2-----------|


  E  E  E  E  E  E  E  E     E  E  E  E  E  E  E  E   
--------------------------|--------------------------|
--------------------------|--------------------------|
--------------------------|-----2--2--------2--2-----|
-----2--2--------2--2-----|-----------2-----------2--|
-----------2-----------2--|--0-----------0-----------|
--2-----------2-----------|--------------------------|


  E  E  E  E  E  E  E  E     E  E  E  E  E  E  E  E   
--------------------------|--------------------------|
--------------------------|--------------------------|
-----2--2--------2--2-----|--------------------------|
-----------2-----------2--|-----0--0--------0--0-----|
--0-----------0-----------|-----------0-----------0--|
--------------------------|--0-----------0-----------|


  E  E  E  E  E  E  E  E     E  E  E  E  E  E  E  E   
--------------------------|--------------------------|
--------------------------|--------------------------|
--------------------------|--------------------------|
-----0--0--------0--0-----|-----0--0--------0--0-----|
-----------0-----------0--|-----------0-----------0--|
--0-----------0-----------|--0-----------0-----------|


  E  E  E  E  E  E  E  E     E  E  E  E  E  E  E  E   
--------------------------|--------------------------|
--------------------------|--------------------------|
--------------------------|--------------------------|
-----0--0--------0--0-----|-----0--0--------0--0-----|
-----------0-----------0--|-----------0-----------0--|
--0-----------0-----------|--0-----------0-----------|


  E  E  E  E  E  E  E  E     E  E  E  E  E  E  E  E   
--------------------------|--------------------------|
--------------------------|--------------------------|
--------------------------|--------------------------|
-----0--0--------0--0-----|-----0--0--------0--0-----|
-----------0-----------0--|-----------0-----------0--|
--0-----------0-----------|--0-----------0-----------|


  E  E  E  E  E  E  E  E       E  E  E  E  E  E  E  E   
--------------------------||---------------------------|
--------------------------||---------------------------|
--------------------------||*--------------------------|
-----0--0--------0--0-----||*-----0--0--------0--0-----|
-----------0-----------0--||------------0-----------0--|
--0-----------0-----------||---0-----------0-----------|


  E  E  E  E  E  E  E  E     E  E  E  E  E  E  E  E   
--------------------------|--------------------------|
--------------------------|--------------------------|
--------------------------|--------------------------|
-----0--0--------0--0-----|-----0--0--------4--4--0--|
-----------0-----------0--|-----------0--------------|
--0-----------0-----------|--0-----------4-----------|


  E  E  E  E  E  E  E  E     E  E  E  E  E  E  E  E   
--------------------------|--------------------------|
--------------------------|-----------------0--0-----|
-----0--0--------2--2-----|--------------------------|
-----------0--------------|-----4--4--0--------------|
--------------0-----------|--------------2--------2--|
--5--------------------5--|--4-----------------------|


  E  E  E  E  E  E  E  E     E  E  E  E  E  E  E  E   
--------------------------|--------------------------|
--------------------------|--------------------------|
-----------------2--2-----|--------------------------|
-----2--2-----------------|-----0--0--------4--4--0--|
--------------0--------0--|-----------0--------------|
--2--------2--------------|--0-----------4-----------|


  E  E  E  E  E  E  E  E     E  E  E  E  E  E  E  E   
--------------------------|--------------------------|
--------------------------|-----------------0--0-----|
-----0--0--------2--2-----|--------------------------|
-----------0--------------|-----4--4--------------4--|
--------------0-----------|--------------2-----------|
--5--------------------5--|--4--------4--------------|


  E  E  E  E  E  E  E  E     E  E  E  E  E  E  E  E   
--------------------------|--------------------------|
--------------------------|--------------------------|
-----------------2--2-----|-----0--0--------0--0-----|
-----2--2-----------------|-----------0-----------0--|
-----------2--0--------0--|--------------------------|
--2-----------------------|--5-----------5-----------|


  E  E  E  E  E  E  E  E     E  E  E  E  E  E  E  E   
--------------------------|--------------------------|
-----1--1--------1--1-----|--------------------------|
-----------0-----------0--|--------------------------|
--------------------------|-----4--4--0-----4--4--0--|
--3-----------3-----------|--------------------------|
--------------------------|--4-----------4-----------|


  E  E  E  E  E  E  E  E     E  E  E  E  E  E  E  E   
--------------------------|--------------------------|
-----0--0--------0--0-----|--------------------------|
--------------------------|--------------------------|
-----------4-----------4--|-----2--2--------2--2-----|
--2-----------2-----------|-----------2-----------2--|
--------------------------|--2-----------2-----------|


  E  E  E  E  E  E  E  E     E  E  E  E  E  E  E  E   
--------------------------|--------------------------|
--------------------------|--------------------------|
--------------------------|-----2--2--------2--2-----|
-----2--2--------2--2-----|-----------2-----------2--|
-----------2-----------2--|--0-----------0-----------|
--2-----------2-----------|--------------------------|


  E  E  E  E  E  E  E  E     E  E  E  E  E  E  E  E   
--------------------------|--------------------------|
--------------------------|--------------------------|
-----2--2--------2--2-----|--------------------------|
-----------2-----------2--|-----0--0--------0--0-----|
--0-----------0-----------|-----------0-----------0--|
--------------------------|--0-----------0-----------|


  E  E  E  E  E  E  E  E     E  E  E  E  E  E  E  E   
--------------------------|--------------------------|
--------------------------|--------------------------|
--------------------------|--------------------------|
-----0--0--------0--0-----|-----0--0--------0--0-----|
-----------0-----------0--|-----------0-----------0--|
--0-----------0-----------|--0-----------0-----------|


  E  E  E  E  E  E  E  E     E  E  E  E  E  E  E  E   
--------------------------|--------------------------|
--------------------------|--------------------------|
--------------------------|--------------------------|
-----0--0--------0--0-----|-----0--0--------0--0-----|
-----------0-----------0--|-----------0-----------0--|
--0-----------0-----------|--0-----------0-----------|


  E  E  E  E  E  E  E  E     E  E  E  E  E  E  E  E   
--------------------------|--------------------------|
--------------------------|--------------------------|
--------------------------|--------------------------|
-----0--0--------0--0-----|-----0--0--------0--0-----|
-----------0-----------0--|-----------0-----------0--|
--0-----------0-----------|--0-----------0-----------|


  E  E  E  E  E  E  E  E       W                  
---------------------------||-------------------||
---------------------------||-------------------||
--------------------------*||-------------------||
-----0--0--------0--0-----*||--0----------------||
-----------0-----------0---||--0----------------||
--0-----------0------------||--0----------------||




Duration Legend
---------------
W - whole
H - half
Q - quarter
E - 8th
S - 16th
T - 32nd
X - 64th
. - note dotted
|-n-|  - n-tuplets


Tablature Legend
----------------
^ - brush up
Rall. - Gradually slow down
A Tempo - Place the tempo the piece originally started with

Login or Register to remove this ad.

6 comments on Outset Island - Guitar Duet

must've worked hard on this

must've worked hard on this huh? nice job!

Not really, it's just based

Not really, it's just based off of a piano version I found that I adapted for 2 guitars. I consider this "cheating," but I figured it was interesting enough that people would want to give it a go. :)

Amazing. Yet another great

Amazing. Yet another great job Kabuki :D

My cousin and me have had a

5

My cousin and me have had a lot of fun playing this one. Maybe we'll post a recording later, just to thank you for you hard work. :P (That is, when I master this song, since I'm nog that good. It's peanuts for my cousin though.)

Hmm

A chord progression would be nice. I mean, most of all these tabs are pretty friggin' useless when left with little to no understanding of what chords the melodies are being played in. With nothing but bass notes to go by, figuring most of these tunes out by ear would be easier than screwing with the tabs posted on this site.

Anyone know where I can find

5

Anyone know where I can find a solo arrangement for this? I suppose I could figure it out by meshing the lead and rhythm parts, but that would take some time.