Login or Register to remove this ad.

Grandma (Legend of Zelda: The Wind Waker) Guitar Tab

Submitted: Sep 30, 2007 by Kabukibear (Last updated: Sep 09, 2009)

4.9375
Average: 4.9 (16 votes)
Download | Listen
Game: Legend of Zelda: The Wind Waker
Composer(s): Koji Kondo, Hajime Wakai, Toru Minegishi, Kenta Nagata
Style: Arrangement, Fingerstyle
Series: Legend of Zelda

AutoScroll: Slow | Medium | Fast
Graaandma's House
~The Legend of Zelda: The Wind Waker~
Composed By: Koji Kondo
Arranged By: Justin Lincoln

bpm=100

     Q    E  E  E  E  E  E     Q    H.              Q    E  E  E  E  E  E
E||----------------0--------|--------------------|-------------------------|
B||-------0--1--3-----3--2--|--3-----------------|-------------0--1--0-----|
G||--0----------------------|-------2------------|-------0--2-----------0--|
D||-------------------------|--4-----------------|--2----------------------|
A||-------------------------|--------------------|-------------------------|
E||-------------------------|--------------------|-------------------------|

  W                   Q    E  E  E  E  E  E     Q    Q    H
-------------------|-------------------------|---------------------|
-------------------|-------------------------|---------------------|
-------------------|-------------0--2--0-----|--0------------------|
--4----------------|-------2--4-----------4--|-------0----0--------|
--5----------------|--3----------------------|--2------------------|
-------------------|-------------------------|---------------------|

  Q    E  E  E  E  E  E     H        E  E  E  E     Q    E  E  E  E  E  E
-------------------------|-----------------------|----------------0--------|
----------------3--1--0--|-----------------------|-------0--1--3-----3--2--|
-------------0-----------|--2--------------0--2--|--0----------------------|
-------2--4--------------|--0--------2--4--------|-------------------------|
--0----------------------|-----------------------|-------------------------|
-------------------------|-----------------------|-------------------------|

  E  E  H.              Q    E  E  Q    Q       Q.     E  H
-----5--5------------|-------3--2--3---------|---------------------|
--3------------------|------------------3----|--0------------------|
---------------------|-----------------------|---------------------|
--4------------------|--2--------------------|---------4--4--------|
---------------------|-----------------------|--5------------------|
---------------------|-----------------------|---------------------|

                                      ^
  Q    E  E  E  E  E  E     Q    Q    Q    E  E     Q.     E  Q    Q
-------------------------|-----------------------|----------------------|
-------------------------|------------3----1--0--|----------------------|
-------------0--2--0-----|--0---------1----------|--2------0--0---------|
-------2--4-----------4--|-------0----2----------|--2---------0----4----|
--3----------------------|--2--------------------|--0--------------3----|
-------------------------|-----------------------|----------------------|

           ^
  H        H           Q    Q    Q    Q       Q.     E  E  E  E  E
-----------3--------|-----------------0----|------------------------|
-----------0--------|------------0---------|--3------1--1-----------|
--0--------0--------|-------0--------------|------------------------|
--------------------|--2-------------------|------------------0--2--|
--2-----------------|------------2---------|--0---------2--3--------|
--3-----------------|----------------------|------------------------|

  Q    Q    Q    Q       Q.     E  E  E  E  E     Q    Q    Q    Q
----------------------|------------------------|-----------------1----|
-----------------3----|--1------0--0-----------|------------0---------|
------------2---------|------------------------|-------1--------------|
-------4--------------|---------------------0--|--2-------------------|
--5---------0---------|------------0--2--3-----|------------2---------|
----------------------|--3---------------------|----------------------|

  Q.     E  E  E  E  E     Q    Q    Q    Q       Q    Q    H
--0---------------------|-----------------2----|---------------------|
---------3--1-----------|------------1---------|--5---------4--------|
------------------------|-------2--------------|------------2--------|
------------------------|----------------------|-------4-------------|
--0---------------0--2--|--3---------0---------|--2------------------|
------------2--4--------|----------------------|---------------------|

  Q    E  E  E  E  E  E     E  E  H.              Q    E  E  Q    Q
----------------0--------|-----5--5------------|-------3--2--3---------|
-------0--1--3-----3--2--|--3------------------|------------------3----|
--0----------------------|---------------------|-----------------------|
-------------------------|--4------------------|--2--------------------|
-------------------------|---------------------|-----------------------|
-------------------------|---------------------|-----------------------|

  Q.     E  H           Q    E  E  E  E  E  E     Q    Q    Q    E  E
---------------------|-------------------------|-----------------------|
--0------------------|-------------------------|------------3----1--0--|
---------------------|-------------0--2--0-----|--0--------------------|
--0------4--4--------|-------2--4-----------4--|-------0----2----------|
---------------------|--3----------------------|--2--------------------|
---------------------|-------------------------|-----------------------|

  Q.     E  Q    Q       W                   Q    E  E  H
----------------------|-------------------|-------------0--------|
--0-------------------|-------------------|----------1-----------|
---------0--0---------|--0----------------|-------0--------------|
-----------------4----|-------------------|----------------------|
--0---------5---------|--2----------------|--3-------------------|
----------------------|--3----------------|----------------------|

  Q    E  E  H           Q    E  E  Q    Q       H        H
----------------------|-------------0---------|---------------------||
----------0--3--------|----------1------------|--0------------------||
-------0--------------|-------0----------0----|-----------2--------*||
----------------------|-----------------------|--0--------4--------*||
--2-------------------|--0--------------------|---------------------||
----------------------|-----------------------|---------------------||

  ^
  W
-------------------||
--0----------------||
--0----------------||
--0----------------||
--2----------------||
--3----------------||

Duration Legend
---------------
W - whole
H - half
Q - quarter
E - 8th
S - 16th
T - 32nd
X - 64th
. - note dotted
|-n-|  - n-tuplets

Tablature Legend
----------------
^ - brush up
Login or Register to remove this ad.

6 comments on Grandma

Just got around to playing

Just got around to playing this tab, very nice.

This is really simple and

5

This is really simple and beautiful. I'm not too good yet, but this is a nice way to challenge myself without it being overwhelming. I like how it's simple to figure out where my fingers can go in preparation for notes, too. ^ ^ Nice job.

i ecpecially enjoy playing

i ecpecially enjoy playing this song. I like to play it capo on the 5th fret just to give it a harpy feeling of home and sadness. well, it makes me think of that. :) very nicely done.

yet, another job well done

5

yet, another job well done keep it up Kabuki!

_

5

Great work :D

Love this!!

I'm been practising this song now and then for quite a while now..
And I starting to get the hang of it! :D