Ads

Aryll's Theme (Legend of Zelda: The Wind Waker) Guitar Tab

Submitted: Jan 26, 2008 by Kabukibear (Last updated: Sep 26, 2009)

5
Average: 5 (9 votes)
Download | Listen
Game: Legend of Zelda: The Wind Waker
Composer(s): Koji Kondo, Hajime Wakai, Toru Minegishi, Kenta Nagata
Style: Arrangement, Fingerstyle
Series: Legend of Zelda

AutoScroll: Slow | Medium | Fast
Aryll's Theme                                   
~The Legend of Zelda: The Wind Waker~
Composed by: Koji Kondo
Arranged by: Justin Lincoln

Gently  bpm=101


                      ^                ^                ^              
     H        Q       H        Q       H        Q       H        Q     
E||----------------|----------------|----------------|----------------|
B||-----------0----|----------------|-----------0----|----------------|
G||----------------|--1-------------|--1-------------|--1-------------|
D||----------------|-----------4----|--2-------------|-----------4----|
A||----------------|--2-------------|--0-------------|--2-------------|
E||----------------|--0-------------|----------------|--0-------------|


  ^                ^                ^                ^              
  H        Q       H        Q       H        Q       H        Q     
----------------|----------------|----------------|----------------|
-----------0----|--4--------2----|--0-------------|----------------|
--1-------------|----------------|-----------2----|--1-------------|
--2-------------|--2-------------|--2-------------|--2--------2----|
--0-------------|----------------|----------------|----------------|
----------------|--4-------------|--3-------------|--2-------------|


  ^                ^                ^                ^              
  H        Q       H        Q       H        Q       H        Q     
----------------|----------------|----------------|----------------|
-----------0----|----------------|-----------0----|----------------|
----------------|--1-------------|--1-------------|--1-------------|
--1-------------|-----------4----|--2-------------|-----------4----|
--2-------------|--2-------------|--0-------------|--2-------------|
----------------|--0-------------|----------------|--0-------------|


  ^                ^                ^                ^             
  H        Q       H        Q       H        Q       H.            
----------------|----------------|-----------0----|---------------|
-----------0----|--4--------2----|--0-------------|--0------------|
--1-------------|----------------|----------------|---------------|
--2-------------|--2-------------|--2-------------|--2------------|
--0-------------|----------------|----------------|---------------|
----------------|--4-------------|--3-------------|--2------------|


                   ^                  ^                ^              
  H        Q       Q    E  E  Q       H        Q       H        Q     
-----------0----|--0---------------|-----------2----|--0-------------|
----------------|--2---------------|--2-------------|----------------|
----------------|--2---------------|--2-------------|--2--------2----|
----------------|--0-------0--2----|--2-------------|----------------|
--2-------------|-------0----------|----------------|--4-------------|
----------------|------------------|--2-------------|----------------|


  ^               ^                 ^                               
  H.              Q    Q    Q       H        Q       Q    H         
---------------|-----------------|----------------|----------------|
---------------|--3--------------|--0-------------|----------------|
--2------------|--2----0---------|--0--------0----|--2-------------|
--2------------|------------2----|--0-------------|-------2--------|
---------------|--3--------------|-----------3----|--2-------------|
--0------------|-----------------|----------------|----------------|


  ^                ^                  ^                ^              
  H        Q       Q    E  E  Q       H        Q       Q    H         
-----------0----|--0----------2----|--0-------------|--5----L--------|
----------------|--2---------------|----------------|--5----L--------|
----------------|--2---------------|--2--------2----|----------------|
--1-------------|--0-------0--2----|----------------|--4-------------|
--2-------------|-------0----------|--4-------------|-------4--------|
----------------|------------------|----------------|----------------|


  ^                 ^                  ^                ^               
  Q    Q    Q       Q.     E  E  E     H        Q       Q    Q    Q     
--5----3----2----|--0------2--4--5--|--7-------------|-------0---------|
--3--------------|------------------|-----------0----|--3---------3----|
-----------------|--1------2--4--6--|--7-------------|--2----L---------|
------------0----|------------------|----------------|-----------------|
--3--------------|------------------|----------------|-----------------|
-----------------|--0---------------|--7-------------|--0----L---------|


  ^                ^                ^                ^              
  H        Q       H        Q       H        Q       H        Q     
----------------|----------------|----------------|----------------|
--2--------0----|----------------|-----------0----|----------------|
--1-------------|--1-------------|--1-------------|--1-------------|
--0-------------|-----------4----|--2-------------|-----------4----|
----------------|--2-------------|--0-------------|--2-------------|
--0-------------|--0-------------|----------------|--0-------------|


  ^                ^                ^                ^              
  H        Q       H        Q       H        Q       H        Q     
----------------|----------------|----------------|----------------|
-----------0----|--4--------2----|--0-------------|----------------|
--1-------------|----------------|-----------2----|--1-------------|
--2-------------|--2-------------|--2-------------|--2--------2----|
--0-------------|----------------|----------------|----------------|
----------------|--4-------------|--3-------------|--2-------------|


  ^                ^                ^                ^              
  H        Q       H        Q       H        Q       H        Q     
----------------|----------------|----------------|----------------|
-----------0----|----------------|-----------0----|----------------|
----------------|--1-------------|--1-------------|--1-------------|
--1-------------|-----------4----|--2-------------|-----------4----|
--2-------------|--2-------------|--0-------------|--2-------------|
----------------|--0-------------|----------------|--0-------------|


  ^                ^                ^                ^             
  H        Q       H        Q       H        Q       H.            
----------------|--0-------------|--2--------0----|--7------------|
-----------0----|--0--------4----|--0-------------|--5------------|
--1-------------|--1-------------|--0-------------|---------------|
--2-------------|--2-------------|--2-------------|--4------------|
--0-------------|----------------|----------------|---------------|
----------------|----------------|----------------|---------------|


                   ^               ^               ^              
  H        Q       H.              H.              H.             
-----------0----|--0------------|--2------------|--5------------||
----------------|--2------------|--3------------|--2------------||
----------------|--2------------|--0------------|--2------------||
----------------|--0------------|--0------------|--2------------||
--2-------------|---------------|---------------|--0------------||
----------------|---------------|---------------|---------------||




Duration Legend
---------------
W - whole
H - half
Q - quarter
E - 8th
S - 16th
T - 32nd
X - 64th
. - note dotted
|-n-|  - n-tuplets


Tablature Legend
----------------
v - brush down
Login or Register to remove this ad.

5 comments on Aryll's Theme

Wow! Very interesting take

5

Wow! Very interesting take on this song. I like it a lot. Your arrangements are getting more and more creative and me likes that :)

Thanks, just thought I'd

Thanks, just thought I'd post something a little easier. Give the beginners something to work on.

Thanks!

This is a cool version of the song. I'm a beginner, so this is awesome. Wind Waker forever!

great job

5

Great job, it sounds nice with a nylon guitar, thank u ^^

Amazing

Beautiful!