Ads

Sheena's Theme (Tales of Symphonia) Guitar Tab

Submitted: May 14, 2008 by KitsuneFox59

4.75
Average: 4.8 (4 votes)
Download | Listen
Game: Tales of Symphonia
Composer(s): Motoi Sakuraba, Shinji Tamura
Style: Transcription

AutoScroll: Slow | Medium | Fast
Song: Sheena's Theme
Game: Tales of Symphonia
Composer: Shinji Tamura
Tabber: KitsuneFox59

Listen to song for timing.


e|---0---------------------------0-5-0-----------0-|
B|-----3-1-0-1---0-1-3-1-0-1-0---------3-1-0-1-3---|
G|-2-----------2---------------2-------------------|
D|-------------------------------------------------|
A|-------------------------------------------------|
E|-------------------------------------------------|

e|---------------------5-3-1-0-----------3-1-0-----|
B|---0-1-3-1-0-1-0---6---------3-0-1-3-0---------0-|
G|-2---------------2---------------------------2---|
D|-------------------------------------------------|
A|-------------------------------------------------|
E|-------------------------------------------------|

e|---1-0-------0-4-5-7-8-7-5-3-1-0-------0---------|
B|-1-----3-1-3---------------------3-1-3---1-3-0-1-|
G|-------------------------------------------------|
D|-------------------------------------------------|
A|-------------------------------------------------|
E|-------------------------------------------------|
                                                    
e|-------------------------------------------------|
B|-0-----------------------------------------------|
G|---3-1-3-1-0-1-----------------------------------|
D|-------------------------------------------------|
A|-------------------------------------------------|
E|-------------------------------------------------|

Repeat last two lines.
Login or Register to remove this ad.

3 comments on Sheena's Theme

Good Job!

5

Good Job!

Exellent work! =3

5

Exellent work! =3

I think this may sound a bit

I think this may sound a bit more accurate.
I've only been playing for like two weeks so who knows.
But nevertheless, thought I'd post it anyway! n_n

It's the last two lines.

e|---1-0---------0-4-5-7-8-7-5-3-1-0----------0----------0-1-|
B|-1------3-1-3----------------------------3-1-3--------1h3-----|
G|-------------------------------------------------|
D|-------------------------------------------------|
A|-------------------------------------------------|
E|-------------------------------------------------|

e|-0-----------------------------------------------|
B|----3-1-1s3-1-0-1---------------------------------|
G|-------------------------------------------------|
D|-------------------------------------------------|
A|-------------------------------------------------|
E|-------------------------------------------------|