Menu Select (Metroid Prime) Guitar Tab

Submitted: Feb 14, 2009 by BohmaN (Last updated: Sep 22, 2016)

5
Average: 5 (1 vote)
Download | Listen
Game: Metroid Prime
Composer(s): Kenji Yamamoto
Style: Arrangement, Fingerstyle
Series: Metroid

AutoScroll: Slow | Medium | Fast
Metroid Prime - Menu Select Theme
Composer: Kenji Yamamoto
Arranged and tabbed by: Emil Bohman
February 9th 2009

Slides are optional.


     H        Q    Q       H        Q    Q       H        Q    Q     
E||---------------------|---------------------|---------------------|
B||---------------------|---------------------|---------------------|
G||---------------------|---------------------|---------------------|
D||--0--------2---------|--0--------2---------|--0--------2---------|
A||----------------3----|----------------3----|----------------3----|
D||--0------------------|--0------------------|--0------------------|


  H        Q    Q       H        Q    Q        Q    H        Q     
---------------------|--5-------------8----|----------------------|
---------------------|--5--------8---------|--/5----6--------5----|
---------------------|---------------------|--------3-------------|
--0--------2---------|---------------------|----------------------|
----------------3----|--0------------------|----------------------|
--0------------------|---------------------|--------3-------------|


  Q     Q    H           Q     Q    Q    Q       H        H         
--5-------------------|-----------------------|--------------------|
----------------------|-------/6--------------|--------------------|
-------/6----7--------|--5---------------5----|--L--------4--------|
-------------5--------|-------------7----3----|-----------2--------|
-------------5--------|------------------3----|-----------2--------|
----------------------|-----------------------|--------------------|


  H        Q    Q        Q    H        Q       Q     Q    H         
--5-------------8----|----------------------|--5-------------------|
--5--------8---------|--/5----6--------5----|----------------------|
---------------------|--------3-------------|-------/6----7--------|
---------------------|----------------------|-------------5--------|
--0------------------|----------------------|-------------5--------|
---------------------|--------3-------------|----------------------|


  Q    Q     Q     Q       H        H             E  E  E  E  Q    Q     
--5----7-----8-----8----|--L--------7--------||-------------------------|
--5----7-----8-----8----|-----------7--------||---3--3-----3--3----3----|
------------------------|--------------------||*--2--2-----2--2----2----|
------------------------|--------------------||*--0-----0---------------|
--0---------------------|--------------------||-------------------------|
-------9----10----10----|-----------9--------||---0---------------------|


  Q    Q    E  E  E  E     Q    Q    Q    Q       E  E  E  E  Q    Q     
--0---------------------|------------0---------|------------------------|
-------1----3--3-----3--|--3----3---------1----|--3--3-----3--3----3----|
------------2--2-----2--|--2----2--------------|--2--2-----2--2----2----|
--2---------0-----0-----|------------2---------|--0-----0---------------|
-------3----------------|-----------------3----|------------------------|
------------0-----------|----------------------|--0---------------------|


  Q    Q    E  E  E  E     Q    Q    Q    Q       
--0----1----3--3-----3--|--3----3----1----0-----||
--0----1----3--3-----3--|--3----3---------------||
------------0-----0-----|----------------------*||
--2----3----------------|------------3----2----*||
------------------------|-----------------------||
------------5-----------|-----------------------||

Repeat...
Login or Register to remove this ad.