Departure (Final Fantasy: Crystal Chronicles) Guitar Tab

Submitted: Sep 30, 2007 by Kabukibear (Last updated: Sep 09, 2009)

5
Average: 5 (12 votes)
Download | Listen
Game: Final Fantasy: Crystal Chronicles
Composer(s): Kumi Tanioka
Style: Arrangement, Fingerstyle
Series: Final Fantasy

AutoScroll: Slow | Medium | Fast
Departure
~Final Fantasy: Crystal Chronicles~
Composed By: Kumi Tanioka
Arranged By: Justin Lincoln

Drop D Tuning

     Q    E  E  E  E  E  E     Q.     E  E  E  Q       Q    E  E  E  E  E  E
E||-------------------------|-----------------------|-------------------------|
B||-------------------------|-----------------------|-------------------------|
G||--2----------------------|-----------------------|--2----------------------|
D||--0----0--0--------0-----|--0--------------------|--0----0--0--------0-----|
A||--0-------------0-----0--|--0---------0--0--0----|--0-------------0-----0--|
D||--0----------0-----------|--0------0--0-----0----|--0----------0-----------|

  Q.     E  E  E  Q         E  E  E  E  E  E  E  E     E  E  E  E  E  E  E  E
-----------------------||---------------------------|--------------------------|
-----------------------||------------3--1-----------|--------------------------|
-----------------------||*--2-----------------0--3--|--2--------3--2--------2--|
--0--------------------||*--------3--------------2--|--3-----3--0--3-----3-----|
--0---------0--0--0----||------0-----------0--------|-----0-----------0--------|
--0------0--0-----0----||---0-----------0-----------|--0-----------0-----------|

  E  E  E  E  E  E  E  E     Q    E  E  Q    E  E     Q    E  E  Q    E  E
--1--------5--0--------3--|--3---------------------|--1----------0----------|
--3--------------------1--|--0----------3----------|----------3----------1--|
--------------2-----0-----|--0----------4----------|--3-------3--2-------2--|
--------3--------------2--|------------------------|------------------------|
--------------------------|---------------------0--|--1----1--1--3----3-----|
--0--0--------0--0--------|--5----5--0--5----5-----|------------------------|

  Q    E  E  Q    E  E     Q    E  E  Q    E  E     Q    E  E  Q    E  E
------------------------|--1-------3--0----------|-------------------------||
--3----------3----------|----------3----------1--|--3----------3-----------||
--0----------0----------|--3----------2-------2--|--2----------2----2-----*||
------------------------|------------------------|--4----------4-------0--*||
---------------------0--|--1----1--1--3----3-----|-------------------------||
--5----5--0--5----5-----|------------------------|--0----0--0--0-----------||

  Q    E  E  Q    E  E     Q    E  E  Q    E  E     Q    E  E  Q    E  E
-------------1----------|------------------------|--0-------1--3-------5--|
--3-------1----------3--|-------------1-------3--|------------------------|
--0-------0--0-------0--|--2-------3-------------|--2-------2--2----------|
------------------------|--3-------3--3-------3--|------------------------|
------------------------|--1----1--1--1----1--1--|--2----2--2--2----2-----|
--1----1--1--1----1-----|------------------------|------------------------|

  Q    E  E  Q    E  E     Q    E  E  Q    E  E     Q    E  E  Q    E  E
--0-------1-------------|-------------1----------|------------------------|
-------------3----------|--3-------1----------3--|-------------1-------3--|
--1-------1--1----------|--0-------0--0-------0--|--2-------3-------------|
------------------------|------------------------|--3-------3--3-------3--|
------------------------|------------------------|--1----1--1--1----1--1--|
--2----2--2--2----2--2--|--1----1--1--1----1-----|------------------------|

  Q    E  E  Q    E  E     Q    E  E  Q    E  E     Q    E  E  Q    E  E
--0-------1--3-------5--|--0-------1--3----------|--0----0----------------|
------------------------|---------------------3--|-------------2----2-----|
--2-------2--2----------|--1-------1--1----------|--0----0-----0----0-----|
------------------------|------------------------|------------------------|
--2----2--2--2----2-----|------------------------|--0-------0--0-------0--|
------------------------|--2----2--2--2----2--2--|------------------------|

  Q    E  E  Q    E  E     Q    E  E  Q    E  E     Q    E  E  Q    E  E
------------------------|--0----0----------------|------------------------|
--3----3-----3----3-----|-------------1----1-----|--3----------3----------|
--3----3-----3----3-----|--0----0-----0----0-----|--2----------2-------0--|
--3----3-----3----3-----|------------------------|--4----------4----3-----|
--1-------1--1-------1--|--3-------3--3-------3--|------------------------|
------------------------|------------------------|--0----0--0--0----------|

  E  E  E  E  E  E  E  E     E  E  E  E  E  E  E  E
--------------------------|--------------------------|
-----------3--1-----------|--------------------------|
--2-----------------0--3--|--2--------3--2--------2--|
--------3--------------2--|--3-----3--0--3-----3-----|
-----0-----------0--------|-----0-----------0--------|
--0-----------0-----------|--0-----------0-----------|

  E  E  E  E  E  E  E  E     Q    E  E  Q    E  E     Q    E  E  Q    E  E
--1--------5--0--------3--|--3---------------------|--1----------0----------|
--3--------------------1--|--0----------3----------|----------3----------1--|
--------------2-----0-----|--0----------4----------|--3-------3--2-------2--|
--------3--------------2--|------------------------|------------------------|
--------------------------|---------------------0--|--1----1--1--3----3-----|
--0--0--------0--0--------|--5----5--0--5----5-----|------------------------|

  Q    E  E  Q    E  E     Q    E  E  Q    E  E     Q    E  E  Q    E  E
------------------------|--1-------3--0----------|------------------------|
--3----------3----------|----------3----------1--|--3----------3----------|
--0----------0----------|--3----------2-------2--|--2----------2----2-----|
------------------------|------------------------|--4----------4-------0--|
---------------------0--|--1----1--1--3----3-----|------------------------|
--5----5--0--5----5-----|------------------------|--0----0--0--0----------|

  E  E  E  E  E  E  E  E     E  E  E  E  E  E  E  E
--------0-----0-----------|--------1--3--0-----------|
-----------3--------------|--------------------------|
--------------------0-----|--------2-----------0-----|
--------3--------------2--|-----------------------2--|
-----0-----------3--------|-----0-----------3--------|
--0-----------3-----------|--0-----------3-----------|

  E  E  E  E  E  E  E  E     Q    E  E  E  E  E  E     E  E  E  E  E  E  E  E
--------1--3--5-----------|--3----------------5--3--|--1--------3--0-----------|
--------------------------|--0----0-----------------|-----------------------1--|
--------------------0-----|--0-------0-----------0--|--------3-----------0-----|
--------3--------------2--|--0----------------0-----|-----3-----------2--------|
-----0-----------3--------|----------------2--------|--1-----------3-----------|
--0-----------3-----------|--5----------0-----------|--------------------------|

  E  E  E  E  Q    E  E      E  E   E  S S E  E  E  E     Q.     E  Q    E  E
-------------------------|-------------0-1-0-----------|-----------------------|
--3-----------3----6--8--|--10-------------------3--1--|--3--------------------|
--------0-----4----------|-----------------------------|--2--------------2--0--|
-----0-----0--5----------|---------12---------2--------|--4--------------------|
-------------------------|------8----------3-----------|-----------------------|
--5-----------5----5--7--|---8-------------------------|--0------0--0----------|

  E  E  E  E  E  E  E  E     E  E  E  E  E  E  E  E
--------------5-----------|--------7--3--5-----------|
--------3-----------------|--------------------------|
--2-----------------0-----|--------------------------|
--------3--0-----------2--|--------7--3--------3--0--|
-----0-----------3--------|-----0-----------0--------|
--0-----------0-----------|--0-----------0-----------|

  E  E  E  E   E   E  E  E     E  E  E  E  E  E  E  E
-----------5--10---------8--|--7--------5--3-----5--3--|
----------------------------|--------0-----------3--0--|
----------------------0-----|-----0-----------0--------|
--------3--0----------------|-----------5--------------|
-----0-------------------7--|--------------------------|
--0------------0--10--------|--5-----------5-----------|

  E  E  E  E  E  E  E  E     E  E  E  E  Q    E  E
--1-----------0-----------|----------------------3--|
-----------3-----------1--|--3-----------3----6-----|
--------3-----------0-----|--------0-----4----------|
-----3-----------2--------|-----0-----0--5----------|
--1-----------3-----------|----------------------0--|
--------------------------|--5-----------5----5-----|

                                            Da Capo
   E  E   E  S S E  E  E  E     Q.     E  H
-------------0-1-0-----------|---------------------||
--10-------------------3--1--|--3------------------||
-----------------------------|--2------------------||
---------12---------2--------|--4------------------||
------8----------3-----------|---------------------||
---8-------------------------|--0------0--0--------||

Duration Legend
---------------
W - whole
H - half
Q - quarter
E - 8th
S - 16th
T - 32nd
X - 64th
. - note dotted
|-n-|  - n-tuplets

Tablature Legend
----------------
Da Capo - Play from beginning, including all repeats
Login or Register to remove this ad.

7 comments on Departure

if i learn to play this, i

if i learn to play this, i will love it!!!!

^_^

Too awsome man. sweet. thank you.

One of my favorite songs on

5

One of my favorite songs on of my favorite games... awsome =3 thx

fantastic tab !

5

I also transposed it to a std tuning version wich can be playable alternatively

really good

5

incredible tab, man. that's true for all your tabs but this one i remember trying to play a while back and i couldn't get it, but now it's pretty easy for me. thank you so much for tabbing.

sounds awesome

Fantastic, this game was a

5

Fantastic, this game was a diamond in the rough.

Each time I happen to find a

5

Each time I happen to find a new recording of an arrangement made by Kabuki, I have to come back to the original tab to praise the Bear.
Sublime.