K.K. Ballad (Animal Crossing) Guitar Tab

Submitted: Dec 21, 2006 by archard (Last updated: Aug 17, 2009)

4.166665
Average: 4.2 (12 votes)
Download | Listen
Game: Animal Crossing
Composer(s): Kazumi Totaka, Shinobu Tanaka, Toru Minegishi
Style: Transcription

AutoScroll: Slow | Medium | Fast
K.K. Ballad
Animal Crossing
Composed by Kazumi Totaka

12/21/06

e-----------------4-----4------------------------------------
B--------4----------------7-6------------------------6--7-6--
G--6-5-6----6-5-6-------------6-------6---------6-----------8
D---------------------------------6-8-------6-8----8---------
A------------------------------------------------------------
E------------------------------------------------------------

e-----------------4-----4-6-4--------------------------------
B--------4-------------------------------------------6-------
G--6-5-6----6-5-6-------------6-------6---------6-------8-6-8
D---------------------------------6-8-------6-8----8---------
A------------------------------------------------------------
E------------------------------------------------------------

e--------------
B--------------
G--6-----5-5--6
D--------------
A--------------
E--------------

Repeat
Login or Register to remove this ad.

15 comments on K.K. Ballad

Lovely. My favorite K.K.

Lovely. My favorite K.K. Slider song, together with Two Days Ago :)

snap... who can put the

snap... who can put the original theme song... like the one at the title screen... plz... it sounds cool on guitar

i just remembered i learned

i just remembered i learned kk song a while ago, the secret song thats in most of totaka's work, but i got it off the internet so it would be stealing others' work.

i'll do the main theme so look for it in the forums or here.

Can someone please do KK

Can someone please do KK cruisin'?? PLEASE!!? Thank you so much.

I did K.K Cruisin', it's

I did K.K Cruisin', it's something like this:

Intro:
BMaj7,9 Bb7,9+

BMaj7,9 Bb7,9+ Ebm7,9 Bbm/Ab
BMaj7,9 Bb7,9+ Ebm7,9 B/Gb
BMaj7,9 Bb7,9+ Ebm7,9 Bbm/Ab
BMaj7,9 Bb7,9+ Ebm7,9 - -

BMaj7,9 Bb7,9+ Ebm7,9 Bbm/Ab
BMaj7,9 Bb7,9+ Ebm7,9 B/Gb
BMaj7,9 Bb7,9+ Ebm7,9 Bbm/Ab
BMaj7,9 Bb7,9+ Ebm7,9 B/Gb

BMaj7,9 Bb7,9+ Ebm7,9 Bbm/Ab
BMaj7,9 Bb7,9+ Ebm7,9 B/Gb
BMaj7,9 Bb7,9+ Ebm7,9 Bbm/Ab
BMaj7,9 Bb7,9+ Ebm7,9 - -

BMaj7,9 Bb7,9+ Ebm7,9 Bbm/Ab
BMaj7,9 Bb7,9+ Ebm7,9 B/Gb
BMaj7,9 Bb7,9+ Ebm7,9 Bbm/Ab
BMaj7,9 Bb7,9+ Ebm7,9 - - - -

BMaj7,9 Bb7,9+ Ebm7,9 Bbm/Ab
BMaj7,9 Bb7,9+ Ebm7,9 B/Gb
BMaj7,9 Bb7,9+ Ebm7,9 Bbm/Ab
BMaj7,9 Bb7,9+ Ebm7,9 %

CMaj7,9 B7,9+ Em7,9 Bm/A
CMaj7,9 B7,9+ Em7,9 C/G
CMaj7,9 B7,9+ Em7,9 Bm/A
CMaj7,9 B7,9+ Em7,9 %

(repeats)

Can you put these chords in

Can you put these chords in tab form please, i dont understand Bbm/Ab.thanks.

Hey thanks for the great

Hey thanks for the great tabs archard, think you could do some more Animal Crossing ones?

Dog Carriers

In 1758, Carl Linnaeus in Systema naturae named the domestic dog “familiaris” and added other dog classifications or species. More dog types were described as species by Johann Friedrich Gmelin in 1788, and by Robert Kerr in his English translation of Systema naturae (The Animal Kingdom) in 1792.Dog Carriers

@ Bruk what do you mean by

@ Bruk

what do you mean by 9+ Ebm7?

top job on the chord chart so far though, I've been looking a long time for this :D

Does anyone know how the

Does anyone know how the chord progression on this song goes?

Nice job :)

I like it. I'm tying to learn this so I can post a duet with my little brother.

No no

He means:

Line one - BMaj7, BMaj9, BbMaj7, BbMaj9+ (raised ninth)

Line two - BMaj7, BMaj9, BbMaj7, BbMaj9+, Ebmin7, Ebmin9, Bbmin over Ab

Make a smidge more sense? @[email protected]

No 9+Ebmin7 chords hehe

Looking forward to trying this one! Thanks =D

AWSOME

THIS SONG IS THE BEST!!

Hi!

you're definately my favourite tabber! great tab as always

I like this. but what are the

4

I like this, but what are the tabs for the background part?