Parachute (Game & Watch Gallery 2) Guitar Tab

Submitted: May 25, 2011 by BluePhoenix (Last updated: May 25, 2011)

0
Download | Listen
Game: Game & Watch Gallery 2
Composer(s): Noriko Nishizaka, Yoko Mizuta, Saburo Sasaki
Style: Arrangement, Fingerstyle

AutoScroll: Slow | Medium | Fast
Parachute
Composed by Noriko Nishizaka 



E||--3---5--3-----------------------------2--|-3---5--3----------------------------2--3--5--|
B||----------------3----------------3--5-----|----------------------------------------------|
G||.-----------------------------------------|----------------------------------------------|
D||.----------------------------0------------|-------------------------------0--------------|
A||----------------3-----2-------------0-----|---------------3------2-----------------0-----|
E||--3---------------------------------------|-3--------------------------------------------|


E|-7----------7--8--10-8----7------5---|-7----------7--8--10-8----7------5---|------3----5--------7---3----|
B|-------------------------------------|-------------------------------------|-5-------------3-------------|
G|---------------0---------------------|---------------0---------------------|-----------------------------|
D|-------------------------------------|-------------------------------------|-2----2----------------------|
A|------2--------------9----7----------|------5--------------9----7----------|-3-------------5-------------|
E|-3-------------------------------3---|-3-------------------------------3---|-----------------------------|


E|----------------------2--3--5---|-7----------7--8--10-8----7------5---|-7----------7--8--10-8--------7------5---|
B|--------------------------------|-------------------------------------|------------------------------8---7--5---|
G|-5----7----9-------5------------|---------------0---------------------|---------------0-----------7-------------|
D|--------------------------------|-------------------------------------|---------------------7--9----------------|
A|--------------------------------|---------------------9----7----------|------5--------------9--------7----------|
E|--------------------------------|-3----7--------------------------3---|-3-----------------------------------3---|


E|------3----5--------7---3----|----------------------------------|-------------------------------------------------|
B|-5-------------3-------------|----------------------8--7--5--7--|-------------------10-------------8--------7-----|
G|-----------------------------|-5----7----9----------------------|-9--------12-------------7-----------------------|
D|-2----2----------------------|----------------------------------|-------------------------------------------------|
A|-3-------------5-------------|----------------------------------|-------10-------7--------------10-------7--------|
E|-----------------------------|----------------------------------|-8--------------------8--------------------------|


E|----------------7-------------|-------------------------------------------------|
B|------8----10------8----------|-------------------10-------------8--------7-----|
G|-5--------------------7-------|-9--------12-------------7-----------------------|
D|------0---------9-----9-------|-------------------------------------------------|
A|-------------------0-------9--|-------10-------7--------------10-------7--------|
E|------------------------------|-8--------------------8--------------------------|


E|------------------------7-------|-------------------------------------------------|
B|------8----10--7--8--10-8-------|-------------------10-------------8--------7-----|
G|-5-------------7----------------|-9--------12-------------7-----------------------|
D|---------------9----------------|-------------------------------------------------|
A|--------------------------------|-------10-------7--------------7-----------------|
E|--------------------------------|-8--------------------8-----------------8--------|


E|----------------7-------------|-----------10--10------------|-10------------10----|
B|------8----10------8----------|------8-------------8--------|------8--------------|
G|-5--------------------7-------|-7---------7---7---------7---|-----------7---------|
D|------0---------9-----9-------|-----------------------------|---------------9-----|
A|-------------------0-------9--|-----------------------------|---------------------|
E|------------------------------|-----------------------------|---------------------|


E|-------------7-8-10-------||
B|-------7-8-10-------------||
G|-7-9-10------------------.||
D|-------------------------.||
A|--------------------------||
E|--------------------------||



Login or Register to remove this ad.

1 comment on Parachute

For the 8th measure, I didn't

For the 8th measure, I didn't want to entirely cut out that part of the song, but it didn't work very well with it entirely. So that was my compromise basically. One can just as easily repeat the 4th measure in that spot.