Login or Register to remove this ad.

Main Theme (Game of Thrones) Guitar Tab

Submitted: Apr 25, 2013 by Bhael (Last updated: Mar 26, 2014)

4.941175
Average: 4.9 (17 votes)
Download | Listen
Game: Game of Thrones
Composer(s): Ramin Djawadi
Style: Arrangement, Fingerstyle

Click here for a video example.

AutoScroll: Slow | Medium | Fast
                                 
                                 Main Theme                                    
                               Game of Thrones
                                Ramin Djawadi

Arranged by Harry Murrell

     E  E  S  S E  E  S  S    E  E  S  S E  S S S  S  
E||--0----------0----------|--0----------0-----------|
B||--------1h-3-------1h-3-|--------1h-3--------2h-3-|
G||-----2----------2-------|-----2----------2--------|
D||------------------------|------------------2------|
A||------------------------|-------------------------|
E||------------------------|-------------------------|


  E  S S S  S E  S S S  S    E  S S S  S E  E  E     E  E  E  E  E  E   
--0-----------0-----------|--0-----------0--------|--0-----------------|
---------2h-3--------2h-3-|---------2h-3----------|--------------------|
-----2-----------2--------|-----2-----------2-----|-----------2--------|
-------2-----------2------|-------2------------2--|-----2--2-----2--2--|
--0-----------------------|--0--------------------|--0-----------------|
--------------------------|-----------------------|--------------------|


  S  S E  E  E  E  S  S    E  E  E  E  E  S  S    E  E  S  S E  E  E   
-------0----------------|----------------------|----------------------|
--1h-3-------------1h-3-|--0-------------------|--0----------0--------|
-------------2----------|-----------------0h-2-|--------0h-2----------|
----------2-----2-------|-----------2----------|-----2----------2-----|
--0---------------------|-----2--2-----2-------|-------------------2--|
------------------------|--0-------------------|--0-------------------|


  E  E  E  E  E  E     S  S E  E  E  E  S  S    E  E  S S E  E  S S  
--------------------|------------------------|----------------------|
--3-----------------|--1p-0-3-----------1p-0-|----------------------|
-----------0--------|-------------0----------|----------0---------0-|
-----0--0-----0--0--|----------0-----0-------|--7-----4---7-----4---|
--------------------|------------------------|-----5---------5------|
--3-----------------|--3---------------------|----------------------|


  E  E  S S E  E  E     E  E  E  E  E  E     S  S E  E  E  E  S  S  
---------------------|--------------------|------------------------|
---------------------|--0-----------------|-------0----------------|
----------0----------|--------------------|--0h-2-------------0h-2-|
--7-----4---7-----4--|-----------2--------|-------------2----------|
-----5---------5-----|-----2--2-----2--2--|----------2-----2-------|
---------------------|--0-----------------|--0---------------------|


  E  E  S  S E  S S S  S    E  S S S  S E  E  E     E  E  E  E  E  E   
-------------2-----------|--2-----------2--------|--------------------|
--------3h-5--------3h-5-|---------3h-5----------|--------------------|
----------------4--------|-----4-----------4-----|--2-----------------|
--4----------------------|-----------------------|-----4-----0--------|
-----2------------2------|-------2------------2--|--5-----5--------0--|
-------------------------|-----------------------|--------------2-----|


  S S E  E  E  E  S  S    E  E  E  E  E  E     E  S S S S E  E  E   
-----------------------|--------------------|--0-------------------|
-----------------------|-----------------0--|-------0---0----------|
--0---2----------------|-----------0--------|-------0---0-------0--|
----4-------0-----5p-4-|--2-----------2-----|-----2---2------2-----|
--5------5-----0-------|--------2-----------|----------------------|
-----------------------|-----0--------------|--0----------0--------|


  E  S E  S E  E  E     S  S E  E  E  E  S  S    E  S S S  S E  S S S S  
--7---------0--------|--3h-5-7-----0-----3h-5-|--2-----------2----------|
-------0----------0--|-------------0----------|---------3h-5----------3-|
-------0----------0--|-------------0----------|-----4-----------4---4---|
---------------------|------------------------|-------------------4-----|
-----7----7----7-----|----------7-------------|--2----2-----------------|
--0------------------|--0-------------0-------|-------------------------|


                                                    ^                  
  E  S S S S E  S S S S    E  S S S S E  S S S S    E  E  E  E  E  E   
--2--2-2-2-2-2--2-2-2-2-|--5----------x--x-x-x-x-|--2-----3--2--------|
--3--3-3-3-3-3--3-3-3-3-|--x--x-x-x-x-3--3-3-3-3-|--3--------3-----3--|
--4--4-4-4-4-4--4-4-4-4-|--2--2-2-2-2-2--2-2-2-2-|--2--2--------------|
--4--4-------4--4-4-4-4-|--0--0-0-0-0-0--0-0-0-0-|--0-----------0-----|
--2---------------------|------------------------|--------------------|
------------------------|------------------------|--------------------|


  E  S S S  S E  S S S  S    E  S S S  S E  E  E     E  E  S S E  E  S S  
--0-----------------------|-----------------------|--0-------------------|
--------------0-----------|--0-----------0--------|------------1---------|
---------0h-2--------1h-2-|---------1h-2----------|----------0---------0-|
-----2-----------2--------|-----2-----------2-----|-----2--2------2--2---|
-------2-----------2------|-------2------------2--|--3-------------------|
--0-----------------------|--0--------------------|----------------------|


  E  E  S S E  S S S S    E  S S S  S E  E  E     E  S S S S E  S S S S  
-----------------------|-----------------------|------------------------|
--3--------------------|-----0--------0--------|--0----0---0-0--0-0-0-0-|
----------0------0---0-|---------0h-2-------0--|-------------4--4-4-4-4-|
-----0--0------0---0---|--2----2---------2-----|-----4---4---4--4-4-4-4-|
-----------------------|-----------------------|--2----------2--2-2-2-2-|
--3---------3----------|--0--------------------|------------------------|


  E  S S S S E  S S S S    E  S S S S E  S S S S    E  S S S  S E  S S S  S  
------------------------|------------------------|--------------------------|
------------------------|------------------------|--0-----------0-----------|
--0----------0--0-0-0-0-|--0----------2----------|---------0h-2--------0h-2-|
-------0---0-0--0-0-0-0-|-----0-0-0-0----4-4-4-4-|-----4-----------4--------|
-----2---2---2--2-2-2-2-|-----2-2-2-2----4-4-4-4-|--2----2-----------2------|
--3----------3--3-3-3-3-|--3--3-3-3-3-2--2-2-2-2-|--------------------------|


                           ^                                              
  E  S S S S E  S S S S    E  S S S S E  S S S S    E  S S E  E  S S S S  
------------------------|--7---------------------|--5--------------------|
--0--0-0-0-0-0--0-0-0-0-|--0---------------------|--3--3-3-3--3--3-3-3-3-|
--4--4-4-4-4-4--4-4-4-4-|--0--0-0-0-0-0--0-0-0-0-|--2--2-2-2--2--2-2-2-2-|
--4--4-4-4-4-4--4-4-4-4-|--0--0-0-0-0-0--0-0-0-0-|--0--0-0-0--0--0-0-0-0-|
--2--2-2-2-2-2--2-2-2-2-|-----x-x-x-x-x--x-x-x-x-|-----------------------|
------------------------|-----3-3-3-3-3--3-3-3-3-|-----------------------|


  E  S S S S E  S S S S    E  S S S S E  S S S S    E  S S S S E  S S S S  
------------------------|--2---------------------|------------------------|
--0---------------------|-----3-3-3-3-3--3-3-3-3-|------------------------|
-----0-0-0-0-0--0-0-0-0-|-----4-4-4-4-4--4-4-4-4-|--0---------------------|
-----2-2-2-2-2--2-2-2-2-|-----4-4-4-4-4--4-4-4-4-|-----0-0-0-0-0--0-0-0-0-|
-----2-2-2-2-2--2-2-2-2-|--2--2-2-2-2-2--2-2-2-2-|-----2-2-2-2-2--2-2-2-2-|
--0--0-0-0-0-0--0-0-0-0-|------------------------|--3--3-3-3-3-3--3-3-3-3-|


  E  S S S S E  S S S S    E  S S S S E  S S S S    E  S S S S E  S S S S  
------------------------|--2---------------------|--2--2-2-2-2-5--5-5-5-5-|
--3----------5----------|--3--3-3-3-3-3--3-3-3-3-|--3--3-3-3-3-3--3-3-3-3-|
-----0-0-0-0----2-2-2-2-|--4--4-4-4-4-4--4-4-4-4-|--4--4-4-4-4-4--4-4-4-4-|
-----0-0-0-0----4-4-4-4-|--4--4-4-4-4-4--4-4-4-4-|--4--4-4-4-4-x--x-x-x-x-|
-----2-2-2-2----4-4-4-4-|--2--2-2-2-2-2--2-2-2-2-|--2--2-2-2-2-2--2-2-2-2-|
--3--3-3-3-3-2--2-2-2-2-|------------------------|------------------------|


         T   T                                             T   T           
  E  S S S S E  S S S S    E  S S S S E  S S S S    E  S S S S E  S S S S  
--7--7-7-7-7-7--7-7-7-7-|--5--5-5-5-5-5--5-5-5-5-|-------------0--0-0-0-0-|
--0--0-0-0-0-0--0-0-0-0-|--3--3-3-3-3-3--3-3-3-3-|--0--0-0-0-0-0--0-0-0-0-|
--0--0-0-0-0-0--0-0-0-0-|--2--2-2-0-0-2--2-2-2-2-|--0--0-0-0-0-0--0-0-0-0-|
--0--0-0-0-0-5--0-0-0-0-|--0--0-0-0-0-0--0-0-0-0-|--2--2-2-0-0-2--2-2-2-2-|
--x--x-x-5-x-x--x-x-x-x-|------------------------|--2--2-2-2-2-2--2-2-2-2-|
--3--3-3-3-3-3--3-3-3-3-|------------------------|--0--0-0-0-0-0--0-0-0-0-|


  E  S S S S E  S S S S    E  S S S S E  S S S S    E  S S S S E  S S S S  
--2--2-2-2-2-2--2-2-2-2-|------------------------|------------------------|
--3--3-3-2-2-3--3-3-3-2-|--0--0-0-0-0-0--0-0-0-0-|--3--3-3-3-3-2--2-2-2-2-|
--4--4-4-2-2-4--4-4-4-2-|--0--0-0-0-0-0--0-0-0-0-|--0--0-0-0-0-2--2-2-2-2-|
--4--4-4-2-2-4--4-4-4-2-|--0--0-0-0-0-0--0-0-0-0-|--0--0-0-0-0-4--4-4-4-4-|
--2--2-2-2-2-2--2-2-2-2-|--2--2-2-0-0-2--2-2-2-2-|--2--2-2-2-2-4--4-4-4-4-|
------------------------|--3--3-3-3-3-3--3-3-3-3-|--3--3-3-3-3-2--2-2-2-2-|


  E  S S S S E  S S S S    E  S S S S E  S S S S    Q    S  S E  S S S  S  
------------------------|------------------------|--0---------------------|
--0--0-0-0-0-0--0-0-0-0-|--0--x-x-x-x-0--0-0-0-0-|--0---------0-----------|
--4--x-x-0-2-4--x-x-0-2-|--4--x-x-x-x-4--4-4-4-4-|--0----0h-2--------0h-2-|
--4--4-4-4-4-4--4-4-4-4-|--4--x-x-x-x-4--4-4-4-4-|--2------------2--------|
--2--2-2-2-2-2--2-2-2-2-|--2--x-x-x-x-2--2-2-2-2-|--2--------------2------|
------------------------|------------------------|--0---------------------|


               NH                       
  E  E  E      Q.        H.             
------------<>12------|--L------------||
--0-------------------|---------------||
----------------------|---------------||
-----2----------------|---------------||
--------2s-----7------|--L------------||
----------------------|---------------||
Login or Register to remove this ad.

8 comments on Main Theme

Fantastic arrangement, glad

5

Fantastic arrangement, glad you could upload it to the site.

Thanks, as am I!

Thanks, as am I!

comment field is required

5

comment field is required

This easily the best

5

This easily the best arrangement of the song I've played.

I'm quite sure that this track was used on that Game of Thrones RPG so it should be fine here on the site.

Well done!

5

Another excellent arrangement Bhael, this one is a lot of fun to play!

WOW

This is fantastic!! Great job!

Here's a great arrangement

5

Here's a great arrangement recalling well the atmosphere of this barbaric TV show, many thanks.

New favorite tab!

5

New favorite tab! I can't believe I overlooked this for so long. Thanks for mentioning it in the forums, Ennea. I'm rooting for this one to break into the Top 50!