Ballad of the Windfish (Legend of Zelda: Link's Awakening) Guitar Tab

Submitted: Sep 29, 2007 by archard

4.642855
Average: 4.6 (14 votes)
Download | Listen
Game: Legend of Zelda: Link's Awakening
Composer(s): Kazumi Totaka, Minako Hamano, Kozue Ishikawa
Style: Transcription
Series: Legend of Zelda

AutoScroll: Slow | Medium | Fast
Ballad of the Windfish
The Legend of Zelda: Link's Awakening
Composed by Koji Kondo

8/2/06

e--7-9-10---7-9-10-----10-9-7-2-5---7
B------------------------------------
G------------------------------------
D------------------------------------
A------------------------------------
E------------------------------------

e--------------3---2-0-2-------------
B--0-2-3---0-3-----------------------
G------------------------------------
D------------------------------------
A------------------------------------
E------------------------------------

e--12-10-2-2--3-----12-10-9-7-2-0-2-7-3---3-5
B--------------------------------------------
G--------------------------------------------
D--------------------------------------------
A--------------------------------------------
E--------------------------------------------

e----0-5-2-------7----------6---15-14
B--2-----------3---------------------
G------------------------------------
D------------------------------------
A------------------------------------
E------------------------------------
Login or Register to remove this ad.

11 comments on Ballad of the Windfish

Awesome game, awesome song

Awesome game, awesome song and awesome tab!

This is my favorite Zelda

This is my favorite Zelda song and I can't wait to play it!

Sounds great, except I think

Sounds great, except I think at the end the 15-14 bit might be off.. Don't know what else would go there though.

One of my most favorite

One of my most favorite zelda games. This song is so great and this tab is perfect!

i love zelda!!!

i love zelda!!!

e----------------------------

e-------------------------------
B-------------------------------
G-------------------------------
D-5-7-8---5-7-8---8-7-5-0-3-5---
A-------------------------------
E-------------------------------

e-------------------------------
B-------------------------------
G-------------------------------
D-5-7-8-3-8-13-12-10-12---------
A-------------------------------
E-------------------------------

e-5-3-0-0-1-1---8-7-5-0---0-5-1-1-3
B-----------------------3----------
G----------------------------------
D----------------------------------
A----------------------------------
E----------------------------------

e----0-3-0----5--4-13-12--------
B--3--------1-------------------
G-------------------------------
D-------------------------------
A-------------------------------
E-------------------------------

e----------------------------

e-------------------------------
B-------------------------------
G-------------------------------
D-5-7-8---5-7-8---8-7-5-0-3-5
A-------------------------------
E-------------------------------

e-------------------------------
B-------------------------------
G-------------------------------
D-5-7-8-3-8-13-12-10-12------
A-------------------------------
E-------------------------------

e-5-3-0-0-1-1---8-7-5-0---0-5-1-1-3
B-------------------------3----------
G------------------------------------
D------------------------------------
A------------------------------------
E------------------------------------

e----0-3-0----5--4-13-12-------
B--3--------1-------------------
G-------------------------------
D-------------------------------
A-------------------------------
E-------------------------------

Sorry! I posted the comment instead of previewing it!
This is how I think that the song actually goes. After the first "verse", it goes up, not down!

Great tabs, ty

4

Great tabs, ty

Kinda hard for me to keep

5

Kinda hard for me to keep going up, and then down, and up... and so on. Otherwise though, awesome tab!

Awesome!!!

5

Wicked tab, man! I've been looking for that everywhere!!!

Awesome tab

5

I might be wrong but I think there is an error in the first line,

e--7-9-10---7-9-10--------9-7-2-5---7
B------------------------------------
G------------------------------------
D------------------------------------
A------------------------------------
E------------------------------------

I think it should be like that. I'm not sure exactly how to write tab signs yet so all I can say is it sounds like the second time you hit the e string on the 10th fret you hold it till you play the ninth, because the more i listen to it over and over it only sounds like there is 5 notes being played, so its sounds like that 10th is held and not played a 3rd time.