Ads

Theme A (Tetris (Game Boy)) Guitar Tab

Submitted: Sep 29, 2007 by Stamen47 (Last updated: Aug 15, 2011)

4.8
Average: 4.8 (10 votes)
Download | Listen
Game: Tetris (Game Boy)
Composer(s): Hirokazu Tanaka
Style: Arrangement, Fingerstyle
Series: Tetris

AutoScroll: Slow | Medium | Fast
Theme A
Tetris

Guitar
     E  E  E  E  E  S S E  E     E  E  E  E  E  E  E  E
E||--0--------------0---------|--------------0-----------|
B||--------0--1--3----3-1--0--|-----------1--------3--1--|
G||---------------------------|--2-----2-----------------|
D||-----2-----2-----2------2--|-----2-----2-----2-----2--|
A||---------------------------|--0-----0-----0-----0-----|
D||--2-----2-----2------2-----|--------------------------|

  E  E  E  E  E  E  E  E     E  E  E  E  E  E  E  E     E  Q    E  E  E  E  E
--------------------0-----|--------------------------|-------------5-----3--1--|
--0--------1--3-----------|--1-----------------------|-----3----6--------------|
-----------1--------------|--------2-----2-----------|-------------------4--2--|
-----6-----------2-----2--|-----2-----2-----2--------|--0----------------------|
--------------------------|--0-----0-----0-----2--3--|-------------------0-----|
--6-----6-----2-----2-----|--------------------------|-----0----0-----0-----3--|

  E  E  E  E  E  E  E  E     E  E  E  E  E  E  E  E
--0-----------0-----------|--------------------0-----|
-----------1--------3-----|--0-----0--1--3-----------|
--0-----------0--------5--|-----------------------1--|
-----------2--------------|-----------------2--------|
--3--3-----3--3-----------|--2--2-----2--------------|
-----------------5-----5--|--------------------------|

  E  E  E  E  Q    Q         E  E  E  E  E  E  E  E
-------------------------||--0-----------------------|
--1----------------------||--1-----------1-----------|
--------2-----2---------*||--------------2-----------|
-----2-----2------------*||-----2-----2-----2-----2--|
--0-----0-----0----------||--0-----0-----0-----0-----|
-------------------------||--------------------------|

  E  E  E  E  E  E  E  E     E  E  E  E  E  E  E  E
--------------------------|--------------------------|
--3-----------0-----------|--1-----------------------|
--1-----1-----1-----1-----|--2-----------2-----------|
-----2-----2-----2-----2--|-----2-----2-----2-----2--|
--------------------------|--0-----0-----0-----0-----|
--------------------------|--------------------------|

  E  E  E  E  E  E  E  E     E  E  E  E  E  E  E  E
--------------------------|--0-----------------------|
--------------0-----------|--1-----------1-----------|
--------------------------|--------------2-----------|
--6-----------------------|-----2-----2-----2-----2--|
-----7-----7-----7-----7--|--0-----0-----0-----0-----|
--6-----6-----6-----6-----|--------------------------|

  E  E  E  E  E  E  E  E     E  E  E  E  E  E  E  E
--------------------------|--------0-----5-----------|
--3-----------0-----------|--1-----1-----5-----------|
--1-----1-----1-----1-----|--2-----------------------|
-----2-----2-----2-----2--|-----2-----2-----7-----7--|
--------------------------|--0-----0-----0-----0-----|
--------------------------|--------------------------|

  E  E  E  E  E  E  E  E       W                   W
--4------------------------||-------------------|-------------------||
--5------------------------||-------------------|-------------------||
--------------------------*||-------------------|-------------------||
--------------------------*||-------------------|-------------------||
-----7-----7-----7-----7---||-------------------|-------------------||
--6-----6-----6-----6------||-------------------|-------------------||

Duration Legend
---------------
W - whole
H - half
Q - quarter
E - 8th
S - 16th
T - 32nd
X - 64th
. - note dotted
|-n-|  - n-tuplets
Login or Register to remove this ad.

6 comments on Theme A

this is the real version,

this is the real version, great tab. my family really enjoys when i play this one, thank you

this tab is great, hard for

5

this tab is great, hard for beginniers thought but is very enjoyable when learnt. thank you.

Personally, I'm not that

4

Personally, I'm not that good at guitar, but from what I got it sounds about right. I was about to give it a one when I found out my guitar wasn't tuned correctly.

I am very new to this, so I

I am very new to this, so I think I have to wait until I can learn this :/
Too bad, I love this song.

I wish this had a better

I wish this had a better ending other than that its great!

Very nice!

5

Very nice!