B Theme (Tetris (Game Boy)) Bass Tab

Submitted: Mar 06, 2009 by Calebelijah (Last updated: Mar 06, 2009)

5
Average: 5 (1 vote)
Download | Listen
Game: Tetris (Game Boy)
Composer(s): Hirokazu Tanaka
Style: Transcription
Series: Tetris

AutoScroll: Slow | Medium | Fast
                                   Theme B                                      


Bass
     S S S S S S S S    S S S S S S S S    S S S S S S S S    S S S S S S S S  
G||--7---7-7---------|--7---7-7---------|--7---7-7---------|--7---7-7---------|
D||----------7---7---|----------7---7---|----------7---7---|----------7---7---|
A||------------------|------------------|------------------|------------------|
E||------------------|------------------|------------------|------------------|
 
 
  S S S S S S S S    S S S S S S S S    S S S S S S S S    S S S S S S S S  
--7---7-7---------|--7---7-7---------|--7---7-7---------|--7---7-7---------|
----------7---7---|----------7---7---|----------7---7---|----------7---7---|
------------------|------------------|------------------|------------------|
------------------|------------------|------------------|------------------|
 
 
  S S S S S S S S    S S S S S S S S    S S S S S S S S    S S S S S S S S  
--7---7-7-6-------|--7---7-7-6-------|--7---7-7---------|--7---7-7---------|
--------------7---|--------------7---|----------7---7---|----------7---7---|
------------------|------------------|------------------|------------------|
------------------|------------------|------------------|------------------|
 
 
  S S S S S S S S    S S S S S S S S    S S S S S S S S    S S S S S S S S  
--7---7-7---------|--7---7-7---------|--7---7-7-6-------|--7---7-7-6-------|
----------7---7---|----------7---7---|--------------7---|--------------7---|
------------------|------------------|------------------|------------------|
------------------|------------------|------------------|------------------|
 
 
  S S S S S S S S    S S S S S S S S    S S S S S S S S    S S S S S S S S  
--7---7-7-----0---|--7---7-7-6-------|--7---7-7-----0---|--7---7-7-0-------|
----------8-------|--------------7---|----------8-------|------------------|
------------------|------------------|------------------|------------------|
------------------|------------------|------------------|--------------8---|
 
 
  S S  S S S S  S S    S S  S S S S  S S    S S  S S S S  S S  
------10-------10---|------10-------10---|------10-------10---|
--------------------|--------------------|--------------------|
--8------8----------|--8------8----------|--8------8----------|
-----------8--------|-----------8--------|-----------8--------|
 
 
  S S  S S S S  S S    S S  S S S S  S S    S S  S S S S  S S  
------10-------10---|------10-------10---|------10-------10---|
--------------------|--------------------|--------------------|
--8------8----------|--8------8----------|--8------8----------|
-----------8--------|-----------8--------|-----------8--------|
 
 
  S S  S S S S  S S    S S  S S  S S  S S    S S  S S S S  S S  
------10-------10---|------10--------12---|--------------------|
--------------------|---------------------|------10-------10---|
--8------8----------|--8------8-10--------|--------------------|
-----------8--------|---------------------|--8------8-8--------|
 
 
  S S  S S S S  S S    S S  S S S S  S S    S S  S S S S  S S  
------10-------10---|--------------------|------10-------10---|
--------------------|------10-------10---|--------------------|
--8------8-8--------|--------------------|--8------8-8--------|
--------------------|--8------8-8--------|--------------------|
 
 
  S S  S S S S  S S    S S  S S S S  S S    S S  S S S S  S S  
--------------------|--------------------|--------------------|
------10-------10---|------10-------10---|------10-------10---|
--------------------|--------------------|--------------------|
--8------8-8--------|--8------8-8--------|--8------8-8--------|
 
 
  S S  S S S S  S S     S S  S  S  S S  S S     S S  S  S  S S  S S  
--------------------|-----------------------|-----------------------|
------10-------10---|-------12---------12---|-------12---------12---|
--------------------|-----------------------|-----------------------|
--8------8-8--------|--10------10-10--------|--10------10-10--------|
 
 
   S S  S  S  S S  S S     S S  S  S  S S  S S    S S  S S S S  S S  
-----------------------|-----------------------|--------------------|
-------12---------12---|-------12---------12---|------10-------10---|
-----------------------|-----------------------|--------------------|
--10------10-10--------|--10------10-10--------|--8------8-8--------|
 
 
  S S  S S S S  S S    S S  S S S S  S S    S S  S S Q     4x 
--------------------|--------------------|------------------||
------10-------10---|------10-------10---|------10--------*-||
--------------------|--------------------|-----------7----*-||
--8------8-8--------|--8------8-8--------|--8------8--------||
 
 
 
 
Duration Legend
---------------
W - whole
H - half
Q - quarter
E - 8th
S - 16th
T - 32nd
X - 64th
. - note dotted
|-n-|  - n-tuplets
 
 
Tablature Legend
----------------
L - tied note


                                   Theme B                                      


Alt Bass
     T    T T  T    T      T    T T  T    T      T    T T  T    T    
     S S  S S  S S  S S    S S  S S  S S  S S    S S  S S  S S  S S  
G||--7------7-----------|--7------7-----------|--7------7-----------|
D||------12-------------|------12-------------|------12-------------|
A||-----------12---12---|-----------12---12---|-----------12---12---|
E||---------------------|---------------------|---------------------|
 
 
  T    T T  T    T      T    T T  T    T      T    T T  T    T    
  S S  S S  S S  S S    S S  S S  S S  S S    S S  S S  S S  S S  
--7------7-----------|--7------7-----------|--7------7-----------|
------12-------------|------12-------------|------12-------------|
-----------12---12---|-----------12---12---|-----------12---12---|
---------------------|---------------------|---------------------|
 
 
  T    T T  T    T      T    T T  T    T      T    T T       T    
  S S  S S  S S  S S    S S  S S  S S  S S    S S  S S  S S  S S  
--7------7-----------|--7------7-----------|--7------7p-6--------|
------12-------------|------12-------------|------12-------------|
-----------12---12---|-----------12---12---|----------------12---|
---------------------|---------------------|---------------------|
 
 
  T    T T       T      T    T T  T    T      T    T T  T    T    
  S S  S S  S S  S S    S S  S S  S S  S S    S S  S S  S S  S S  
--7------7p-6--------|--7------7-----------|--7------7-----------|
------12-------------|------12-------------|------12-------------|
----------------12---|-----------12---12---|-----------12---12---|
---------------------|---------------------|---------------------|
 
 
  T    T T  T    T      T    T T  T    T      T    T T       T    
  S S  S S  S S  S S    S S  S S  S S  S S    S S  S S  S S  S S  
--7------7-----------|--7------7-----------|--7------7p-6--------|
------12-------------|------12-------------|------12-------------|
-----------12---12---|-----------12---12---|----------------12---|
---------------------|---------------------|---------------------|
 
 
  T    T T       T      T    T T T    T      T    T T       T    
  S S  S S  S S  S S    S S  S S S S  S S    S S  S S  S S  S S  
--7------7p-6--------|--7------7----------|--7------7p-6--------|
------12-------------|------12---8--------|------12-------------|
----------------12---|---------------10---|----------------12---|
---------------------|--------------------|---------------------|
 
 
  T    T T T    T      T    T T  T   T      T    T T T    T    
  S S  S S S S  S S    S S  S S  S S S S    S S  S S S S  S S  
--7------7----------|--7------7----------|------10-------10---|
------12---8--------|------12------------|--------------------|
---------------10---|-----------10-------|--8------8----------|
--------------------|----------------8---|-----------8--------|
 
 
  T    T T T    T      T    T T T    T      T    T T T    T    
  S S  S S S S  S S    S S  S S S S  S S    S S  S S S S  S S  
------10-------10---|------10-------10---|------10-------10---|
--------------------|--------------------|--------------------|
--8------8----------|--8------8----------|--8------8----------|
-----------8--------|-----------8--------|-----------8--------|
 
 
  T    T T T    T      T    T T T    T      T    T T T    T    
  S S  S S S S  S S    S S  S S S S  S S    S S  S S S S  S S  
------10-------10---|------10-------10---|------10-------10---|
--------------------|--------------------|--------------------|
--8------8----------|--8------8----------|--8------8----------|
-----------8--------|-----------8--------|-----------8--------|
 
 
  T    T T  T    T      T    T T T    T      T    T T T    T    
  S S  S S  S S  S S    S S  S S S S  S S    S S  S S S S  S S  
------10--------12---|--------------------|------10-------10---|
---------------------|------10-------10---|--------------------|
--8------8-10--------|--------------------|--8------8-8--------|
---------------------|--8------8-8--------|--------------------|
 
 
  T    T T T    T      T    T T T    T      T    T T T    T    
  S S  S S S S  S S    S S  S S S S  S S    S S  S S S S  S S  
--------------------|------10-------10---|--------------------|
------10-------10---|--------------------|------10-------10---|
--------------------|--8------8-8--------|--------------------|
--8------8-8--------|--------------------|--8------8-8--------|
 
 
  T    T T T    T      T    T T T    T      T    T T T    T    
  S S  S S S S  S S    S S  S S S S  S S    S S  S S S S  S S  
--------------------|--------------------|--------------------|
------10-------10---|------10-------10---|------10-------10---|
--------------------|--------------------|--------------------|
--8------8-8--------|--8------8-8--------|--8------8-8--------|
 
 
   T    T  T  T    T       T    T  T  T    T       T    T  T  T    T    
   S S  S  S  S S  S S     S S  S  S  S S  S S     S S  S  S  S S  S S  
-----------------------|-----------------------|-----------------------|
-------12---------12---|-------12---------12---|-------12---------12---|
-----------------------|-----------------------|-----------------------|
--10------10-10--------|--10------10-10--------|--10------10-10--------|
 
 
   T    T  T  T    T      T    T T T    T      T    T T T    T    
   S S  S  S  S S  S S    S S  S S S S  S S    S S  S S S S  S S  
-----------------------|--------------------|--------------------|
-------12---------12---|------10-------10---|------10-------10---|
-----------------------|--------------------|--------------------|
--10------10-10--------|--8------8-8--------|--8------8-8--------|
 
 
  T    T T T    T      T    T T T        
  S S  S S S S  S S    S S  S S Q     4x 
--------------------|------------------||
------10-------10---|------10--------*-||
--------------------|-----------7----*-||
--8------8-8--------|--8------8--------||
 
 
 
 
Duration Legend
---------------
W - whole
H - half
Q - quarter
E - 8th
S - 16th
T - 32nd
X - 64th
. - note dotted
|-n-|  - n-tuplets
 
 
Tablature Legend
----------------
L - tied note
T - tapping

Login or Register to remove this ad.

1 comment on B Theme

Great as always, Caleb, Theme

5

Great as always, Caleb, Theme B is a great rhythmic piece, and the bass is important in making the piece what it is.