Ads

Goldenrod City (Pokémon Gold & Silver) Bass/Guitar Tab

Submitted: Feb 03, 2009 by yoshistrings (Last updated: Apr 05, 2010)

5
Average: 5 (2 votes)
Download | Listen
Game: Pokémon Gold & Silver
Composer(s): Junichi Masuda, Go Ichinose
Style: 2 or more instruments, Transcription
Series: Pokemon

AutoScroll: Slow | Medium | Fast
Pokemon Gold and Silver: Goldenrod City
Tabbed by yoshistrings

Standard tuning

  Gtr I
  Q  Q     Q  Q       E E E E   Q.    S S   Q  Q     E E E E
|-------------------|---------------------|--------------------|
|-------------------|---------------------|--------------------|
|-------------------|---------------------|------------3-1-----|
|-3--------1--------|---------------------|----------------4---|
|----4--------3-----|-4-3-1-3-----------0-|-1--4-----1---------|
|-------------------|-----------4-----4---|--------------------|
|
| Gtr II (BASS)
| Q  E S S Q  E S S   Q   E S S Q   E S S   Q  E S S Q   E S S
|-6----6---5----5---|-3-----3---1-----1---|--------------------|
|-------------------|---------------------|-4----4---1-----1---|
|-------------------|---------------------|--------------------|
|-------------------|---------------------|--------------------|


  E E E E   Q.         E   Q  Q     Q  Q       E E E E   Q.    S S
|------------------------|-------------------|---------------------|
|------------------------|-------------------|---------------------|
|-----1------------------|-------------------|---------------------|
|-3-4---3---1------------|-3--------1--------|---------------------|
|------------------------|----4--------3-----|-4-3-1-3-----------0-|
|------------------------|-------------------|-----------4-----4---|
|
| Q   E S S S  S E +E  E   Q  E S S Q  E S S   Q   E S S Q   E S S
|-1-----1--------------1-|-------------------|-----------1-----1---|
|------------------------|-------------------|---------------------|
|------------------------|-4----4---3----3---|-1-----1-------------|
|-----------4----4-(4)---|-------------------|---------------------|


  Q  Q     E E E E     E E E E   Q.         E   Q.         E   +Q   Q
|--------------------|------------------------|------------1---(1)---------|
|--------------------|-----1-2---4------------|-2-------------------2------|
|------------3-1-----|-1-3--------------------|----------------------------|
|----------------4---|------------------------|----------------------------|
|-1--4-----1---------|------------------------|----------------------------|
|--------------------|------------------------|----------------------------|
|
| Q  E S S Q   E S S   Q   E S S S  S E +E  E   S  S S S E S S  Q   S S E
|--------------------|-1-----1--------------1-|------6--------------5-6----|
|-4----4---1-----1---|------------------------|-------------------------6--|
|--------------------|------------------------|-4------4---4---------------|
|--------------------|-----------4----4-(4)---|----------------------------|


  Q.         E   +Q   E   S S
|-----------------------------|
|-1----------4---(4)--1-------|
|-------------------------1-2-|
|-----------------------------|
|-----------------------------|
|-----------------------------|
|
| S  S S S E S S  Q   S S E
|------5--------------4-5-----|
|-------------------------6---|
|-3------3---3----------------|
|-----------------------------|


  Q.         E   +Q   Q       Q       E E   E E   Q
|---------------------------|-------------------------|
|------------2---(2)--------|-1-------4-------0---1---|
|-3-------------------3-----|-----------1---3---------|
|---------------------------|-------------------------|
|---------------------------|-------------------------|
|---------------------------|-------------------------|
|
| S  S S S E S S  Q   S S E   S S S S E S S E S S E E
|-3----3--------------2-3---|---------------------0---|
|-------------------------4-|-----6-------------1---1-|
|--------1---1--------------|-----------------3-------|
|---------------------------|-4-----4---4-------------|


  Q.         E   +Q   Q
|------------1---(1)--------|
|-2-------------------2-----|
|---------------------------|
|---------------------------|
|---------------------------|
|---------------------------|
|
| S  S S S E S S  Q   S S E
|------6--------------5-6---|
|-------------------------6-|
|-4------4---4--------------|
|---------------------------|


  Q.         E   +Q   E   S S   Q.         E   +Q   Q
|-----------------------------|---------------------------|
|-1----------4---(4)--1-------|------------2---(2)--------|
|-------------------------1-2-|-3-------------------3-----|
|-----------------------------|---------------------------|
|-----------------------------|---------------------------|
|-----------------------------|---------------------------|
|
| S  S S S E S S  Q   S S E     S  S S S E S S  Q   S S E
|------5--------------4-5-----|-3----3--------------2-3---|
|-------------------------6---|-------------------------4-|
|-3------3---3----------------|--------1---1--------------|
|-----------------------------|---------------------------|


  Q        E E    E E  E E   Q  Q     Q  Q       E E E E   Q.    S S
|------------1-------------|-------------------|---------------------|
|-1--------4------4-2--1---|-------------------|---------------------|
|------------------------1-|-------------------|---------------------|
|--------------------------|-3--------1--------|---------------------|
|--------------------------|----4--------3-----|-4-3-1-3-------------|
|--------------------------|-------------------|-----------4-----4-5-|
|
| S S  S S E S S  Q    E E   Q  E S S Q  E S S   Q   E S S Q   E S S
|--------------------------|-------------------|---------------------|
|--------------------------|-------------------|---------------------|
|-----11---------11--------|-------------------|---------------------|
|-4------4---4--------11-4-|-9----9---8----8---|-6-----6---4-----4---|


  Q  Q     E E E E     E E E E   Q.         E   Q  Q     Q  Q
|--------------------|------------------------|-------------------|
|--------------------|------------------------|-------------------|
|------------3-1-----|-----1------------------|-------------------|
|----------------4---|-3-4---3---1------------|-3--------1--------|
|----4-----1---------|------------------------|----4--------3-----|
|-6------------------|------------------------|-------------------|
|
| Q  E S S Q   E S S   Q   E S S S  S E +E  E   Q  E S S Q  E S S
|--------------------|------------------------|-------------------|
|----------1-----1---|-6-----6--------------6-|-------------------|
|--------------------|------------------------|-4----4---3----3---|
|-2----2-------------|-----------4----4-(4)---|-------------------|


  E E E E   Q.    S S   Q  Q     E E E E     E E E E   Q.         E
|---------------------|--------------------|------------------------|
|---------------------|--------------------|-----1-2---4------------|
|---------------------|------------3-1-----|-1-3--------------------|
|---------------------|----------------4---|------------------------|
|-4-3-1-3-----------0-|-1--4-----1---------|------------------------|
|-----------4-----4---|--------------------|------------------------|
|
| Q   E S S Q   E S S   Q  E S S Q   E S S   Q   E S S S  S E +E  E
|---------------------|--------------------|-1-----1--------------1-|
|-----------6-----6---|-4----4---1-----1---|------------------------|
|-1-----1-------------|--------------------|------------------------|
|---------------------|--------------------|-----------4----4-(4)---|


  Q.         E   +Q   Q
|------------1---(1)--------|
|-2-------------------2-----|
|---------------------------|
|---------------------------|
|---------------------------|
|---------------------------|
|
| S  S S S E S S  Q   S S E
|------1--------------5-6---|
|-------------------------6-|
|-4------4---4--------------|
|---------------------------|


  Q.         E   +Q   E   S S   Q.         E   +Q   Q
|-----------------------------|---------------------------|
|-1----------4---(4)--1-------|------------2---(2)--------|
|-------------------------1-2-|-3-------------------3-----|
|-----------------------------|---------------------------|
|-----------------------------|---------------------------|
|-----------------------------|---------------------------|
|
| S  S S S E S S  Q   S S E     S  S S S E S S  Q   S S E
|------5--------------4-5-----|-3----3--------------2-3---|
|-------------------------6---|-------------------------4-|
|-3------3---3----------------|--------1---1--------------|
|-----------------------------|---------------------------|


  Q       E E   E E   Q     Q.         E   +Q   Q
|-------------------------|------------1---(1)--------|
|-1-------4-------0---1---|-2-------------------2-----|
|-----------1---3---------|---------------------------|
|-------------------------|---------------------------|
|-------------------------|---------------------------|
|-------------------------|---------------------------|
|
| S S S S E S S E S S E E   S  S S S E S S  Q   S S E
|-----1---------------0---|------6--------------5-6---|
|-------------------1---1-|-------------------------6-|
|-----------------3-------|-4------4---4--------------|
|-4-----4---4-------------|---------------------------|


  Q.         E   +Q   E   S S
|-----------------------------|
|-1----------4---(4)--1-------|
|-------------------------1-2-|
|-----------------------------|
|-----------------------------|
|-----------------------------|
|
| S  S S S E S S  Q   S S E
|------5--------------4-5-----|
|-------------------------6---|
|-3------3---3----------------|
|-----------------------------|


  Q.         E   +Q   Q       Q       E E   E E E E
|---------------------------|-----------1-----------*|
|------------2---(2)--------|-1-------4-----4-2-1---*|
|-3-------------------3-----|---------------------1-*|
|---------------------------|-----------------------*|
|---------------------------|-----------------------*|
|---------------------------|-----------------------*|
|
| S  S S S E S S  Q   S S E   S S S S E S S Q   E E
|-3----3--------------2-3---|-----1---------1-------*|
|-------------------------4-|-------------------2---*|
|--------1---1--------------|-----------------------*|
|---------------------------|-4-----4---4---------4-*|


Duration Legend
---------------
W - whole; H - half; Q - quarter; E - 8th; S - 16th; T - 32nd; X - 64th; a - acciaccatura
+ - note tied to previous; . - note dotted; .. - note double dotted
Uncapitalized letters represent notes that are staccato (1/2 duration)
Irregular groupings are notated above the duration line
Duration letters will always appear directly above the note/fret number it represents the
duration for.  Duration letters with no fret number below them represent rests.  Multi-
bar rests are notated in the form Wxn, where n is the number of bars to rest for.  Low
melody durations appear below the staff

Tablature Legend
----------------
 h   - hammer-on
 p   - pull-off
 b   - bend
 pb  - pre-bend
 r   - bend release (if no number after the r, then release immediately)
 /\  - slide into or out of (from/to "nowhere")
 s   - legato slide
 S   - shift slide
  - natural harmonic
[n]  - artificial harmonic
n(n) - tapped harmonic
 ~   - vibrato
 tr  - trill
 T   - tap
 TP  - trem. picking
 PM  - palm muting
\n/  - tremolo bar dip; n = amount to dip
 \n  - tremolo bar down
 n/  - tremolo bar up
/n\  - tremolo bar inverted dip
 =   - hold bend; also acts as connecting device for hammers/pulls
 <>  - volume swell (louder/softer)
 x   - on rhythm slash represents muted slash
 o   - on rhythm slash represents single note slash

Misc Legend
-----------
 |  - bar
||  - double bar
||o - repeat start
o|| - repeat end
*|  - double bar (ending)
 :  - bar (freetime)
 $  - Segno
 &  - Coda
Tempo markers -  = BPM(8/16=s8/s16), where s8 = swing 8ths, s16 = swing 16ths
Login or Register to remove this ad.

1 comment on Goldenrod City

Nice! I love pokemon.

Nice! I love pokemon.