Ads

Horon Village (Legend of Zelda: Oracle of Seasons) Guitar Tab

Submitted: Dec 31, 2008 by hslesperance

5
Average: 5 (1 vote)
Download | Listen
Game: Legend of Zelda: Oracle of Seasons
Composer(s): M-Adachi, Kyopi
Style: 2 or more instruments, Transcription
Series: Legend of Zelda

AutoScroll: Slow | Medium | Fast
The Legend of Zelda: Oracle of Seasons
Horon Village
Composed by Kyopi and M-Adachi
Tabbed by hslesperance
12/26/08

Guitar 1 - Standard Tuning
Guitar 2 - Drop-D Tuning


Guitar 1

e--------2--------------------2--------------------2---
B---4---------2----4--5--4---------2-------2--4--------
G---------------------------------------4--------------
D------------------------------------------------------
A------------------------------------------------------
E------------------------------------------------------

e---9--7------------------------------4----11----9-----
B---------7-----7----5----------5--7-------------------
G------------8----------8--6---------------------------
D------------------------------------------------------
A------------------------------------------------------
E------------------------------------------------------

e----------------9-------------------------9-----------
B---11--9-------------12----12--11--9-------------9----
G----------11------------------------------------------
D--------------------------------------11-----11-------
A------------------------------------------------------
E------------------------------------------------------
                            v
e-------9-------------------14-------------------------
B--------------7h9p7h9p7----13-------------------------
G---------------------------11-------------------------
D---11-----11------------------------------------------
A------------------------------------------------------
E------------------------------------------------------

Guitar 2

e------------------------------------------------------
B------------------------------------------------------
G------------------------------------------------------
D------4-----4-----4-----4-----4-----4-----------------
A---2-----2-----1-----------2-----2--------------------
D---------------------4-----------------8--4--6--8-----

e------------------------------------------------------
B------------------------------------------------------
G------------------------------1-----1-----------------
D------4-----------1-----1-----------------------------
A---2-----2--1--------------4-----4-----------1--2-----
D---------------4-----4-----------------4--6-----------

e------------------------------------------------------
B------------------------------------------------------
G------------------------------------------------------
D------2-----------------------------------------1-----
A---4-----4--2--1--4-----4-----------1-----1--2--------
D---------------------4-----1--2--4-----6--------------

e------------------------------------------------------
B------------------------------------------------------
G------------------------------------------------------
D---2----1-----------------4-----4-----4-----4---------
A-------------4----2----1-----2-----3-----4------------
D------------------------------------------------------

h - hammer on 
p - pull off
v - down stroke arrpegio
Login or Register to remove this ad.

1 comment on Horon Village

This is epic. Thank you!!

5

This is epic. Thank you!!