Ads

Koholint Disappears (Legend of Zelda: Link's Awakening) Guitar Tab

Submitted: Sep 14, 2008 by Stamen47 (Last updated: Oct 31, 2009)

5
Average: 5 (4 votes)
Download | Listen
Game: Legend of Zelda: Link's Awakening
Composer(s): Kazumi Totaka, Minako Hamano, Kozue Ishikawa
Style: Arrangement, Fingerstyle, Natural harmonics
Series: Legend of Zelda

AutoScroll: Slow | Medium | Fast
                              Koholint Disapears                                


     H.           E  E     H.           E  E     H.           E  E   
E||---------------------|--0------------------|--0------------------|
B||------------------4--|------------------4--|---------------4-----|
G||---------------6-----|---------------6-----|------------------6--|
D||---------------------|---------------------|---------------------|
A||---------------------|---------------------|---------------------|
E||---------------------|---------------------|---------------------|


  Q    H.              H           E  S S E  E  E  S S E  E   
-------4------------|--L--------|--9-------------------------|
--------------------|-----------|---------------7------------|
--------------------|-----------|----------------------------|
--6-----------------|-----------|----------------------------|
--------------------|-----------|----------------------------|
--------------------|-----------|--9--9-9-9--9--9--9-9-9--9--|


  E  S S E  E  E  S S E  E     E  S S E  E  E  S S E  E   
----------------------------|--9-------------------------|
--9-------------------------|---------------7------------|
---------------6------------|----------------------------|
----------------------------|----------------------------|
----------------------------|----------------------------|
--9--9-9-9--9--9--9-9-9--9--|--9--9-9-9--9--9--9-9-9--9--|


                          A7M                         
  E  E  E  E  E  E  E     E   E  E  S S S S E  E  E   
-----------------------|--0---------------4----------|
--9-----------L--------|------------5---5------2--4--|
-----------------6--8--|--------------6--------------|
-----------------------|--6--------------------2--4--|
-----------------7--9--|------0--0-------------------|
--9--9--9--9-----------|-----------------------------|


                                  B/C#       C#m        
  E  E  E  S S S S E  E  E     E  E    E  E  Q.     E   
-----------------4----------|--------------------------|
--5--------5---5------------|-----4----------2---------|
-------------6--------8--6--|-----4----------1---------|
--6-------------------------|--6--4----------2---------|
-----0--0-------------9--7--|-----4----4---------------|
----------------------------|--------------------------|


                         C#m/B    A7M                          
  E  E  E  S S S S E  E  E        E   E  E  S S S S S S E  E   
-------------------------------|--0-----------0-5-7-9-7----0--|
---------------0-2----2--4-----|------------------------------|
-------------------------------|------------6-----------6--L--|
-----------2-4--------2--4-----|------------------------------|
--0--4--4----------4-----2-----|--L---0--0--------------------|
-------------------------------|------------------------------|


                                   E                             
  E  E  E  S  S  S S  S S E  E     E  E  E  S S S S S S S S S S  
--5--------0-------9-12-9-------|-------------0-----7-----0---0-|
-------------10-12--------9--7--|--9--------0---7-9---9-7---0---|
--------------------------------|-------------------------------|
--------------------------------|-------------------------------|
-----0--0--------------------0--|-------------------------------|
--0-----------------------------|-----0--0----------------------|


  E7M                                  
  S   S  S S S S S S S S  S S S S S S  
--------11-7---0---0---7-11-7---0---0-|
--7---9------9-------9--------9-------|
-----------------8----------------8---|
--------------------------------------|
--------------------------------------|
--7------0---0------------------------|


  G#m7/E                                           
  S       S  S  S  S  S  S  S  S  S  S  S S S S S  
------------14-11----------------11-14-11-7-------|
--9------12-------12----------12------------9-7-9-|
---------------------13-11-13---------------------|
--------------------------------------------------|
--------------------------------------------------|
--7----------0-----0------------------------------|


       Eadd9                                                    
                                       NH                       
  S  S S     S S S S S S S S  S  E     E     W                  
--7-11-------------------0------11--<>12--|--L----------------||
---------------------0-----9-12-----------|-------------------||
-----------------------8------------------|-------------------||
-------------------6----------------------|-------------------||
---------------6-7------------------------|-------------------||
--7----0-----7----------------------------|-------------------||




Duration Legend
---------------
W - whole
H - half
Q - quarter
E - 8th
S - 16th
T - 32nd
X - 64th
. - note dotted
|-n-|  - n-tuplets
Login or Register to remove this ad.

1 comment on Koholint Disappears

Nice Tab :D hope you do more

5

Nice Tab :D hope you do more from Links Awaking it is my favorite of the zelda titles ^^