Title Screen (Kirby's Dreamland) Bass/Guitar Tab

Submitted: Apr 08, 2009 by hslesperance (Last updated: Feb 20, 2011)

5
Average: 5 (1 vote)
Download | Listen
Game: Kirby's Dreamland
Composer(s): Jun Ishikawa
Style: 2 or more instruments, Transcription
Series: Kirby

AutoScroll: Slow | Medium | Fast
Title Screen
Kirby's Dreamland
Composed by Jun Ishikawa
Tabbed by hslesperance
4/8/09

Guitars - Standard Tuning
Bass - Drop C Tuning


Guitar 1

e---------12--------------------------------------13---12-----15-15-15
B-------13----15--13--12--13-----12------------------------15---------
G-----12----------------------14----12--12--13-14---------------------
D---14----------------------------------------------------------------
A---------------------------------------------------------------------
E---------------------------------------------------------------------

e---------12--------------------------------------13---12-----15------
B-------13----15--13--12--13-----12------------------------15---------
G-----12----------------------14----12--12--13-14---------------------
D---14----------------------------------------------------------------
A---------------------------------------------------------------------
E---------------------------------------------------------------------

e-----------12--------------------------------------------------------
B---13---15------13--15--13-------------------------------------------
G---------------------------------------------------------------------
D---------------------------------------------------------------------
A---------------------------------------------------------------------
E---------------------------------------------------------------------

e-----------15----------------------------12--------------------------
B---13---15------13--15--13--------15-15-----15-----------------------
G---------------------------------------------------------------------
D---------------------------------------------------------------------
A---------------------------------------------------------------------
E---------------------------------------------------------------------


Guitar 2

    0:03                    0:07                       0:13
e---------------------------------------------------------------------
B---10-10-12----------------12\---------------------------------------
G---------------------------------------------------------12-----12---
D------------------------------------------------------12-------------
A-------------------------------------------------------------10------
E---------------------------------------------------------------------


Bass

G---------------------------------------------------------------------
D---------------------3---3----------------------------3---3----------
A-----3---3---3---3--------------------3---3---3---3------------------
C---0---0---0---0---5---5---7--------0---0---0---0---5---5---7--------

G---------------------------------------------------------------------
D-------7-7-----7-7-----5-5-----5-5-----3-------3-------3-------5-----
A---0-------0-----------------------------3-------3-------------------
C-------------------7-------7-------5-------5-------5-----5-7-7---7---

G---------------------------------------------------------------------
D-------7-7-----7-7-----5-5-----5-5-----3-------3---------------------
A---0-------0-----------------------------3-------3-------------------
C-------------------7-------7-------5-------5-------------------------

h - hammer on
\ - slide down
Login or Register to remove this ad.

1 comment on Title Screen

Ahh! Thanks! I'm still trying

Ahh! Thanks! I'm still trying to learn it but your amazing! Thanks~