Ads

King Dedede's Theme (Kirby's Dreamland) Guitar Tab

Submitted: Mar 08, 2008 by Skyone (Last updated: Mar 08, 2008)

4
Average: 4 (4 votes)
Download | Listen
Game: Kirby's Dreamland
Composer(s): Jun Ishikawa
Style: Transcription
Series: Kirby

This song is also called Boss Theme

AutoScroll: Slow | Medium | Fast
King Dedede (Boss Theme)
Tabbed by Skyone

March 7, 2008


/ = Slide
^ = Hammer-on



PART A
------

e-2--------------2----------4--6----2/1--------------2------------------------
B----4------2^4-------4--------------------4------------4----2--4---2--4---2--
G-------------------------------------------------3---------------------------
D-----------------------------------------------------------------------------
A-----------------------------------------------------------------------------
E-----------------------------------------------------------------------------

e-4--2------4--2-----2-------2--4--5--6--9--6------9--6------9--6-------------
B-----------------4-------4---------------------------------------------------
G-----------------------------------------------------------------------------
D-----------------------------------------------------------------------------
A-----------------------------------------------------------------------------
E-----------------------------------------------------------------------------


PART B
------

e-14-------------14---------16-18---14/13------------14-----------------------
B----16-----14^16-----16-------------------16-----------16---14-16--14-16--14-
G-------------------------------------------------15---------------------------
D------------------------------------------------------------------------------
A------------------------------------------------------------------------------
E------------------------------------------------------------------------------

e-16-14-----16-14----14------14-16-17-18-21-18-----21-18-----21-18-------------
B-----------------16------16---------------------------------------------------
G------------------------------------------------------------------------------
D------------------------------------------------------------------------------
A------------------------------------------------------------------------------
E------------------------------------------------------------------------------
Login or Register to remove this ad.