Ads

Fallen White Angel (Super Robot Taisen: Original Generation) Guitar Tab

Submitted: Dec 15, 2007 by daniellu14 (Last updated: Dec 15, 2007)

4.833335
Average: 4.8 (6 votes)
Download | Listen
Game: Super Robot Taisen: Original Generation
Composer(s): Unknown
Style: Transcription

AutoScroll: Slow | Medium | Fast
e---5-4-0--------5-4-0--------5-4-0--------5-4-0-----
B-2-------2----2-------2----2-------2----2-------2---
G----------------------------------------------------   x4
D----------------------------------------------------
A----------------------------------------------------
E----------------------------------------------------

e-9-----9--7---7--7--5--7--9----
B---7--------------------------7
G------------9------------------
D-------------------------------
A-------------------------------
E-------------------------------

e--9------12--10--7-----7--9--10--
B-----7---------------------------
G--------------------9------------
D---------------------------------
A---------------------------------
E---------------------------------

e-0-0-0-0-0-0-0-0-0-2-0----0-0-0-0-0-0-5-4-0--1--2--1-2
B------------------------------------------------------
G------------------------------------------------------
D------------------------------------------------------
A------------------------------------------------------
E------------------------------------------------------

e-2-0-2-0-2-2/4-4/5-5/7-5-5/4---------------
B------------------------------3-3--2-2--5v~(I'm not sure if
G-------------------------------------------this even exists...)
D-------------------------------------------
A-------------------------------------------
E-------------------------------------------

e-0-0-0-0-0-0-0-0-0-2-0----0-0-0-0-0-0-5-4-0--1---
B-------------------------------------------------
G-------------------------------------------------
D-------------------------------------------------
A-------------------------------------------------
E-------------------------------------------------

e-2--2-4-5-7--7-4--0--2--9---7----------17--------17---
B-------------------------------9----14-----14-14------
G---------------------------------9--------------------
D------------------------------------------------------
A------------------------------------------------------
E------------------------------------------------------

e-14--19--16--12---12--13-14-16
B--------------12--------------
G------------------------------
D------------------------------
A------------------------------
E------------------------------

e-9--8-9--9/14---9--10--10-9--10--10/15
B--------------------------------------
G--------------------------------------
D--------------------------------------
A--------------------------------------
E--------------------------------------

e-10--------16-----14--16--17-----------
B----7--9---------------------15--14-15-
G---------------------------------------
D---------------------------------------
A---------------------------------------
E---------------------------------------

e---------------14~---
B-14-12-14--12-------
G--------------------
D--------------------
A--------------------
E--------------------


e-0-0-0-0-0-0-0-0-0-2-0----0-0-0-0-0-0-5-4-0--1--2--
B---------------------------------------------------
G---------------------------------------------------
D---------------------------------------------------
A---------------------------------------------------
E---------------------------------------------------

e-------17--------17---
B----14-----14-14------
G-9--------------------
D----------------------
A----------------------
E----------------------

e-14--19-19-19-17-16-----16-17
B---------------------14----------------
G------------------------------------
D------------------------------------
A------------------------------------
E------------------------------------

e--------2-0---0--2-2--2/7--4--0----
B-2-3-2-3---------------------------
G-----------------------------------
D-----------------------------------
A-----------------------------------
E-----------------------------------

Repeat from Start
Login or Register to remove this ad.

1 comment on Fallen White Angel

Slight comment on some of the parts.

The Intro sounds more like

e---5-4-0----5-4-0--------5-4-0----5-4-0-------------
B-2--------2--------0-2------------2--------0-2---------
G----------------------------------------------------
D----------------------------------------------------
A----------------------------------------------------
E----------------------------------------------------

and from the sound clip you posted there's no repeat, let alone 4X. It just leads into the next part from there.

and as for the part immediately following that

e-9-----9--7---7--7-9*-5--7--9----
B----7------------------------------7--
G---------------9--------------------

That * note seems missing. At the very least its missing if you're listening to the GBA version, its difficult to hear whether its in the one you supplied or not.

e--9------12--10--7---------7--9--10--
B-----7-----------------------------
G------------------------9-*------------

There's a note there, definitely, I can't tell what it is because I'm not musically inclined like that, but the closest I would say is a B7, its hard to say because the next notes are sort of hard to place from the G9.