Ads

Opening Theme (Mega Man Battle Network) Guitar Tab

Submitted: Aug 12, 2008 by Lybaerd (Last updated: Oct 13, 2010)

3.5
Average: 3.5 (2 votes)
Download | Listen
Game: Mega Man Battle Network
Composer(s): Akari Kaida
Style: Transcription
Series: Mega Man

AutoScroll: Slow | Medium | Fast
Game: MegaMan EXE
Song: Opening Theme
Original Composer: Akari Kaida
Transcribed By: L10N

e------------------------------------------------
B------------------------------------------------
G------11-9-7-9----------11-9-7-9----------------
D-9-12----------9---9-12----------9--------------
A------------------------------------------------
E------------------------------------------------

e------------------------------------------------
B--------------10--8-7-8-7-------------7---------
G------9-7-6---------------9-7-9---7-----9-7-9---
D-9-11-------7-------------------9---9---------9-
A------------------------------------------------
E------------------------------------------------

e------------------------------------------------
B------------------------------------------------
G-7---9-7-6--------------------------------------
D---9-------7-9----------------------------------
A------------------------------------------------
E------------------------------------------------

e------------------------------------------------
B-----7-8-7---7---10-----------7-8-7---7---------
G-7-9-------9---7----------7-9-------9---7-9-----
D------------------------------------------------
A------------------------------------------------
E------------------------------------------------

Play final bar three times
Login or Register to remove this ad.

7 comments on Opening Theme

You might want to look at

You might want to look at the last bar again...from what the game ((Battle Network 1)) and the midi sounds like, it should be:
e-----------------------------------------------------------
B-------7-8-7----8-7---10---------7-8-7---8-7------
G-7-9---------7--------------7-9-----------7-------7---
D-----------------------------------------------------------
A-----------------------------------------------------------
E-----------------------------------------------------------

Good tabs but

they dont sound like the midi, i opened up the midi using Guitar Pro and the tabs for it are

Lead Melody
H. E E E E E S Q S E E
E||-------------------10--|--14--12--10--12-------------10--|
B||---------------12------|-----------------12----L-12------|
G||-----------------------|---------------------------------|
D||-----------------------|---------------------------------|
A||-----------------------|---------------------------------|
E||-----------------------|---------------------------------|

E E E S Q S E E Q Q Q Q
--14--12--10--12-------------10--|--12----10----9----------|
-----------------12----L-12------|-------------------10----|
---------------------------------|-------------------------|
---------------------------------|-------------------------|
---------------------------------|-------------------------|
---------------------------------|-------------------------|

H E E E E E E E S Q S E E
--17--------L--15--14--15--|--14--12--10--12-------------10--|
---------------------------|-----------------12----L-12------|
---------------------------|---------------------------------|
---------------------------|---------------------------------|
---------------------------|---------------------------------|
---------------------------|---------------------------------|

E E E S Q S E E Q Q Q E. S
--14--12--10--12-------------10--|--12----10----9---------7-|
-----------------12----L-12------|-------------------10-----|
---------------------------------|--------------------------|
---------------------------------|--------------------------|
---------------------------------|--------------------------|
---------------------------------|--------------------------|

W W H. E. S
--L----------------|--L----------------|--L------------L-----|
-------------------|-------------------|---------------------|
-------------------|-------------------|---------------------|
-------------------|-------------------|---------------------|
-------------------|-------------------|---------------------|
-------------------|-------------------|---------------------|

W E E E E E. E. E E. E. H E
-------------------|-----10--12--14--15---14-------|--15---14---17--------L--|
-------------------|---------------------------15--|-------------------------|
-------------------|-------------------------------|-------------------------|
-------------------|-------------------------------|-------------------------|
-------------------|-------------------------------|-------------------------|
-------------------|-------------------------------|-------------------------|

E H. E W E E E E E. E. E
--L------------------|-------------------|-----10--12--14--15---14-------|
---------------------|-------------------|---------------------------15--|
---------------------|-------------------|-------------------------------|
---------------------|-------------------|-------------------------------|
---------------------|-------------------|-------------------------------|
---------------------|-------------------|-------------------------------|

E. E. H E E H. E W
--15---14----------------|---------------------|-------------------|
------------15--------L--|--L------------------|-------------------|
-------------------------|---------------------|-------------------|
-------------------------|---------------------|-------------------|
-------------------------|---------------------|-------------------|
-------------------------|---------------------|-------------------|

E E E E E. E. E E. E. H E E H. E
-----10--12--14--15---14-------|--15---14---17--------L--|--L------------------|
---------------------------15--|-------------------------|---------------------|
-------------------------------|-------------------------|---------------------|
-------------------------------|-------------------------|---------------------|
-------------------------------|-------------------------|---------------------|
-------------------------------|-------------------------|---------------------|

W E E E E E. E. E E. E. H E
-------------------|-----10--12--14--15---14-------|--15---14----------------|
-------------------|---------------------------15--|------------15--------L--|
-------------------|-------------------------------|-------------------------|
-------------------|-------------------------------|-------------------------|
-------------------|-------------------------------|-------------------------|
-------------------|-------------------------------|-------------------------|

E H. E W E E E E E. E. E
---------------------|-------------------|-----10--12--14--15---14-------|
--L------------------|-------------------|---------------------------15--|
---------------------|-------------------|-------------------------------|
---------------------|-------------------|-------------------------------|
---------------------|-------------------|-------------------------------|
---------------------|-------------------|-------------------------------|

E. E. H E E H. E W
--15---14---17--------L--|--L------------------|-------------------|
-------------------------|---------------------|-------------------|
-------------------------|---------------------|-------------------|
-------------------------|---------------------|-------------------|
-------------------------|---------------------|-------------------|
-------------------------|---------------------|-------------------|

E E E E E. E. E E. E. H E
-----10--12--14--15---14-------|--15---14----------------|
---------------------------15--|------------15--------L--|
-------------------------------|-------------------------|
-------------------------------|-------------------------|
-------------------------------|-------------------------|
-------------------------------|-------------------------|

E H Q E
----------------------|-----||
--L-------------------|-----||
----------------------|-----||
----------------------|-----||
----------------------|-----||
----------------------|-----||

Yep sorry guys I do all my

Yep sorry guys I do all my tabs off mp3's.
Next time I'll try to find midi's to tab from.

If you sound like the MP3,

If you sound like the MP3, but not the MIDI, it means the MIDI is wrong. When you find a MIDI of a song, it means someone did their own transcription to make that MIDI file, but they're not necessarily right. That's why I almost always prefer MP3s if I can figure it out by ear.

I almost always use midis for

I almost always use midis for my arrangements, since an arrangement can differ so much from the actual song.

Ohh, I get what you're

Ohh, I get what you're saying. This tab says it's a transcription, so I was just talking about preferring making transcriptions from MP3 instead of MIDI. But if you're making an arrangement, then making a MIDI is pretty much a necessity, right? For my few arrangements I have tried to make MIDIs :-)

I didn't link to the midi

I didn't link to the midi that is supplied because I tabbed off an mp3, they sound very different. To play this as I tabbed it goto atomic-fire.com and find your way to the media gallery to download the mp3 I used which is in the battle network series section.