Main Theme (Mega Man Battle Network 2) Guitar Tab

Submitted: Aug 14, 2008 by Lybaerd (Last updated: Oct 13, 2010)

5
Average: 5 (2 votes)
Download | Listen
Game: Mega Man Battle Network 2
Composer(s): Yoshino Aoki
Style: Transcription
Series: Mega Man

AutoScroll: Slow | Medium | Fast
Song: RockMan Exe 2 Theme
Original Composer:  Yoshino Aoki
Transcribed By: L10N

e------------------------------------------------
B-14-12-10-12----10----14-12-10-12---------------
G------------11----11-------------11-------------
D------------------------------------------------
A------------------------------------------------
E------------------------------------------------

e-----------------12-10-9-10-9-7-5-7---5---9-7-5-
B-10----12-10-9---------------------7---7--------
G---11---------9---------------------------------
D------------------------------------------------
A------------------------------------------------
E------------------------------------------------

e-7---5---7-5-4----------------------------------
B--7---7-------5-7-------------------------------
G------------------------------------------------
D------------------------------------------------
A------------------------------------------------
E------------------------------------------------

e------------------------------------------------
B------------------------------------------------
G------------------------------------------------
D------------------------------------------------
A------------------------------------------------
E-1-1-2-3-2-3---1-1-2-3-2-1-4--------------------

e-17-14-15-14-------------14-15-14----17-14------
B------------17-15-17-------------17-------15----
G------------------------------------------------
D------------------------------------------------
A------------------------------------------------
E------------------------------------------------

e------14-17-14-15-14--------14-15-14--17-14-----
B-15-17--------------17-15-17--------17-----15---
G------------------------------------------------
D------------------------------------------------
A------------------------------------------------
E------------------------------------------------
Login or Register to remove this ad.