Ads

Hollow Bastion (Kingdom Hearts: Chain of Memories) Guitar Tab

Submitted: Oct 21, 2007 by Yamato (Last updated: Jul 02, 2008)

5
Average: 5 (2 votes)
Download | Listen
Game: Kingdom Hearts: Chain of Memories
Composer(s): Yoko Shimomura
Style: 2 or more instruments, Transcription
Series: Kingdom Hearts

AutoScroll: Slow | Medium | Fast
                                Hallowbastion                                   


     S S S S S S S S S S    S S S S S S S S S S    S S S S S S S S S S  
E||--2-3-2-7-----------9-|--------7-----------9-|--------7-----------9-|
B||----------7-8-7-8-7---|--7-8-7---7-8-7-8-7---|--7-8-7---7-8-7-8-7---|
G||----------------------|----------------------|----------------------|
D||----------------------|----------------------|----------------------|
A||----------------------|----------------------|----------------------|
E||----------------------|----------------------|----------------------|


  S S S S S S S S S S    S S S S S S S S S S    S S S S S S S S S S  
--------7-----------9-|--------7-----------9-|--------7-----------9-|
--7-8-7---7-8-7-8-7---|--7-8-7---7-8-7-8-7---|--7-8-7---7-8-7-8-7---|
----------------------|----------------------|----------------------|
----------------------|----------------------|----------------------|
----------------------|----------------------|----------------------|
----------------------|----------------------|----------------------|


   S S S  S  S S  S S  S  S     S S  S  S  S  S  S S  S S  
--10-9-7-12-10-9-10-9-10-12-|--10-9-10-14-12-10-12-9-10-7-|
----------------------------|-----------------------------|
----------------------------|-----------------------------|
----------------------------|-----------------------------|
----------------------------|-----------------------------|
----------------------------|-----------------------------|


  S S S S S S S S S S    S S S S S S S S S S     S S S  S  S S  S S  S  S  
--------7-----------9-|--------7-----------9-|--10-9-7-12-10-9-10-9-10-12-|
--7-8-7---7-8-7-8-7---|--7-8-7---7-8-7-8-7---|----------------------------|
----------------------|----------------------|----------------------------|
----------------------|----------------------|----------------------------|
----------------------|----------------------|----------------------------|
----------------------|----------------------|----------------------------|


   S S  S  S  S  S  S S  S S    S S S S S S S S S S    S S S S S S S S S S  
--10-9-10-14-12-10-12-9-10-7-|--------7-----------9-|--------7-----------9-|
-----------------------------|--7-8-7---7-8-7-8-7---|--7-8-7---7-8-7-8-7---|
-----------------------------|----------------------|----------------------|
-----------------------------|----------------------|----------------------|
-----------------------------|----------------------|----------------------|
-----------------------------|----------------------|----------------------|


   S S S  S  S S  S S  S  S     S S  S  S  S  S  S S  S S    H        E   
--10-9-7-12-10-9-10-9-10-12-|--10-9-10-14-12-10-12-9-10-7-|--------------|
----------------------------|-----------------------------|--------------|
----------------------------|-----------------------------|--------------|
----------------------------|-----------------------------|--------------|
----------------------------|-----------------------------|--------------|
----------------------------|-----------------------------|--------------|


  H        E     H        E     H        E     S S S S S S S S S S  
--------------|--------------|--------------|--2-3-2-7-----------9-|
--------------|--------------|--------------|----------7-8-7-8-7---|
--------------|--------------|--------------|----------------------|
--------------|--------------|--------------|----------------------|
--------------|--------------|--------------|----------------------|
--------------|--------------|--------------|----------------------|


  S S S S S S S S S S     S S S  S  S S  S S  S  S  
--------7-----------9-|--10-9-7-12-10-9-10-9-10-12-|
--7-8-7---7-8-7-8-7---|----------------------------|
----------------------|----------------------------|
----------------------|----------------------------|
----------------------|----------------------------|
----------------------|----------------------------|


   S S  S  S  S  S  S S  S S    S S S S S S S S S S    S S S S S S S S S S  
--10-9-10-14-12-10-12-9-10-7-|--------7-----------9-|--------7-----------9-|
-----------------------------|--7-8-7---7-8-7-8-7---|--7-8-7---7-8-7-8-7---|
-----------------------------|----------------------|----------------------|
-----------------------------|----------------------|----------------------|
-----------------------------|----------------------|----------------------|
-----------------------------|----------------------|----------------------|


   S S S  S  S S  S S  S  S     S S  S  S  S  S  S S  S S  
--10-9-7-12-10-9-10-9-10-12-|--10-9-10-14-12-10-12-9-10-7-|
----------------------------|-----------------------------|
----------------------------|-----------------------------|
----------------------------|-----------------------------|
----------------------------|-----------------------------|
----------------------------|-----------------------------|


  S S S S S S S S S S    S S S S S S S S S S     S  S S  S  S  S  S  S  S  S  
--------7-----------9-|--------7-----------9-|--12-10-8-14-12-10-12-10-12-14-|
--7-8-7---7-8-7-8-7---|--7-8-7---7-8-7-8-7---|-------------------------------|
----------------------|----------------------|-------------------------------|
----------------------|----------------------|-------------------------------|
----------------------|----------------------|-------------------------------|
----------------------|----------------------|-------------------------------|


   S  S S  S  S  S  S  S  S  S     S  S  S  S  S  S  S  S  S  S  
--12-10-8-15-14-12-14-12-14----|--------------------------------|
----------------------------15-|-----------------------------14-|
-------------------------------|-----------16-------------------|
-------------------------------|--16-17-16----16-17-16-17-16----|
-------------------------------|--------------------------------|
-------------------------------|--------------------------------|


   S  S  S  S  S  S  S  S  S  S     S  S S  S  S  S  S  S  S  S  
--------------------------------|--12-10-8-14-12-10-12-10-12-14-|
-----------------------------14-|-------------------------------|
-----------16-------------------|-------------------------------|
--16-17-16----16-17-16-17-16----|-------------------------------|
--------------------------------|-------------------------------|
--------------------------------|-------------------------------|


   S  S S  S  S  S  S  S  S  S   
--12-10-8-15-14-12-14-12-14----||
----------------------------15-||
-------------------------------||
-------------------------------||
-------------------------------||
-------------------------------||




Duration Legend
---------------
W - whole
H - half
Q - quarter
E - 8th
S - 16th
T - 32nd
X - 64th
. - note dotted
|-n-|  - n-tuplets





                                Hallowbastion                                   


     H        E     H        E     H        E     H        E   
E||--------------|--------------|--------------|--------------|
B||--------------|--------------|--------------|--------------|
G||--------------|--------------|--------------|--------------|
D||--------------|--------------|--------------|--------------|
A||--------------|--------------|--------------|--------------|
E||--------------|--------------|--------------|--------------|


  S S S S S S S S S S    S S S S S S S S S S     S S S  S  S S  S S  S  S  
--2-3-2-7-----------9-|--------7-----------9-|--10-9-7-12-10-9-10-9-10-12-|
----------7-8-7-8-7---|--7-8-7---7-8-7-8-7---|----------------------------|
----------------------|----------------------|----------------------------|
----------------------|----------------------|----------------------------|
----------------------|----------------------|----------------------------|
----------------------|----------------------|----------------------------|


   S S  S  S  S  S  S S  S S    S S S S S S S S S S    S S S S S S S S S S  
--10-9-10-14-12-10-12-9-10-7-|--------7-----------9-|--------7-----------9-|
-----------------------------|--7-8-7---7-8-7-8-7---|--7-8-7---7-8-7-8-7---|
-----------------------------|----------------------|----------------------|
-----------------------------|----------------------|----------------------|
-----------------------------|----------------------|----------------------|
-----------------------------|----------------------|----------------------|


   S S S  S  S S  S S  S  S     S S  S  S  S  S  S S  S S  
--10-9-7-12-10-9-10-9-10-12-|--10-9-10-14-12-10-12-9-10-7-|
----------------------------|-----------------------------|
----------------------------|-----------------------------|
----------------------------|-----------------------------|
----------------------------|-----------------------------|
----------------------------|-----------------------------|


  S S S S S S S S S S    S S S S S S S S S S     S S S  S  S S  S S  S  S  
--2-3-2-7-----------9-|--------7-----------9-|--10-9-7-12-10-9-10-9-10-12-|
----------7-8-7-8-7---|--7-8-7---7-8-7-8-7---|----------------------------|
----------------------|----------------------|----------------------------|
----------------------|----------------------|----------------------------|
----------------------|----------------------|----------------------------|
--2-------------------|----------------------|----------------------------|


   S S  S  S  S  S  S S  S S    H        E     H        E     H        E   
--10-9-10-14-12-10-12-9-10-7-|--------------|--------------|--------------|
-----------------------------|--------------|--------------|--------------|
-----------------------------|--------------|--------------|--------------|
-----------------------------|--------------|--------------|--------------|
-----------------------------|--------------|--------------|--------------|
-----------------------------|--------------|--------------|--------------|


  H        E     S S S S S S S S S S    S S S S S S S S S S  
--------------|--2-3-2-7-----------9-|--------7-----------9-|
--------------|----------7-8-7-8-7---|--7-8-7---7-8-7-8-7---|
--------------|----------------------|----------------------|
--------------|----------------------|----------------------|
--------------|----------------------|----------------------|
--------------|----------------------|----------------------|


   S S S  S  S S  S S  S  S     S S  S  S  S  S  S S  S S  
--10-9-7-12-10-9-10-9-10-12-|--10-9-10-14-12-10-12-9-10-7-|
----------------------------|-----------------------------|
----------------------------|-----------------------------|
----------------------------|-----------------------------|
----------------------------|-----------------------------|
----------------------------|-----------------------------|


  S S S S S S S S S S    S S S S S S S S S S     S S S  S  S S  S S  S  S  
--------7-----------9-|--------7-----------9-|--10-9-7-12-10-9-10-9-10-12-|
--7-8-7---7-8-7-8-7---|--7-8-7---7-8-7-8-7---|----------------------------|
----------------------|----------------------|----------------------------|
----------------------|----------------------|----------------------------|
----------------------|----------------------|----------------------------|
----------------------|----------------------|----------------------------|


   S S  S  S  S  S  S S  S S    S S S S S S S S S S    S S S S S S S S S S  
--10-9-10-14-12-10-12-9-10-7-|--2-3-2-7-----------9-|--------7-----------9-|
-----------------------------|----------7-8-7-8-7---|--7-8-7---7-8-7-8-7---|
-----------------------------|----------------------|----------------------|
-----------------------------|----------------------|----------------------|
-----------------------------|----------------------|----------------------|
-----------------------------|--2-------------------|----------------------|


   S  S S  S  S  S  S  S  S  S     S  S S  S  S  S  S  S  S  S  
--12-10-8-14-12-10-12-10-12-14-|--12-10-8-15-14-12-14-12-14----|
-------------------------------|----------------------------15-|
-------------------------------|-------------------------------|
-------------------------------|-------------------------------|
-------------------------------|-------------------------------|
-------------------------------|-------------------------------|


   S  S  S  S  S  S  S  S  S  S     S  S  S  S  S  S  S  S  S  S  
--------------------------------|--------------------------------|
-----------------------------14-|-----------------------------14-|
-----------16-------------------|-----------16-------------------|
--16-17-16----16-17-16-17-16----|--16-17-16----16-17-16-17-16----|
--------------------------------|--------------------------------|
--------------------------------|--------------------------------|


   S  S S  S  S  S  S  S  S  S     S  S S  S  S  S  S  S  S  S   
--12-10-8-14-12-10-12-10-12-14-|--12-10-8-15-14-12-14-12-14----||
-------------------------------|----------------------------15-||
-------------------------------|-------------------------------||
-------------------------------|-------------------------------||
-------------------------------|-------------------------------||
-------------------------------|-------------------------------||




Duration Legend
---------------
W - whole
H - half
Q - quarter
E - 8th
S - 16th
T - 32nd
X - 64th
. - note dotted
|-n-|  - n-tuplets
Login or Register to remove this ad.