Venus Lighthouse (Golden Sun) Guitar Tab

Submitted: Jan 04, 2007 by (Last updated: Nov 27, 2009)

4.42857
Average: 4.4 (7 votes)
Download | Listen
Game: Golden Sun
Composer(s): Motoi Sakuraba
Style: Transcription

AutoScroll: Slow | Medium | Fast
Venus Lighthouse
Golden Sun
Composer: Motoi Sakuraba
Tabbed by Alex Brenzinger [[email protected]]
January 4th 2007

e|----------------------------------------------------
B|-------------------------7--------------------------
G|-------------9-6---7---9---9-----6-------6----------
D|-------6-7-9-------------------9-------9------------
A|---9---------------------------------------9---7-9--
E|----------------------------------------------------

e|--------------------------------------------
B|--------------------------------------------
G|----6--------------------------------------- X2
D|--9-----------------------------------------
A|------9---7--9--11--9---9---9---11-12-------
E|--------------------------------------------

e|-------------------------------------------------
B|-------7-----------------------------------------
G|-----------9-7-6-------6-7-6---------------------
D|-----------------9---9---------------------------
A|---9---------------------------9-9----9-11-12-9--
E|-------------------------------------------------

e|-----------------------------------------------
B|--7----------------------7--6-7-9--------------
G|-----9-7-6-------6-7-6-------------------------
D|------------9---9------------------------------
A|-----------------------------------------------
E|-----------------------------------------------

Repeat as you please.

This is my first tab, so if there are any problems...
E-mail me -->   [[email protected]]
Login or Register to remove this ad.

8 comments on Venus Lighthouse

I just realized that I

I just realized that I actually forgot to include part of the song...oops! Haha. I'll add it in and resubmit one day.

Man, i sow want a good tab

Man, i sow want a good tab of Golden Sun - Sol Sanctum, please guyz make one ::!!!!

It might be a good idea to

It might be a good idea to post your requests in the forum. You know, where people are actually gonna see it.

freak !!!!!!! i will play

freak !!!!!!! i will play the battle theme in you tube soon!!!

Can someone please put some

Can someone please put some more Golden Sun tabs on this site!!??

Make requests on the forum

Make requests on the forum please, tom.

awesome man. you did really

awesome man. you did really well on this. It's nice to play for a beginner guitar player. I managed to play both Ivan and Venus. It's nice to play gaming music. That's why I favorited this. :)

you put a lot of time and

5

you put a lot of time and effort in these games. good job!!!!