Ads

Ivan's Theme (Golden Sun) Guitar Tab

Submitted: Sep 29, 2007 by archard (Last updated: Oct 05, 2007)

5
Average: 5 (1 vote)
Download | Listen
Game: Golden Sun
Composer(s): Motoi Sakuraba
Style: Transcription

AutoScroll: Slow | Medium | Fast
Ivan Theme - Golden Sun

e||-----------------------|--7-----------------|---------------------|
B||--9--------9--7-----7--|-------7------------|--5------------5--4--|
G||-----------------9-----|--------------------|---------------------|
D||-----------------------|--------------------|---------------------|
A||-----------------------|--------------------|---------------------|
E||-----------------------|--------------------|---------------------|

--------4-------------|-----------9--7---------|-----------------------|
-----4-------4--------|--2--------------10--9--|--7--9-----------7--9--|
--6-------------------|------------------------|------------9----------|
----------------------|------------------------|-----------------------|
----------------------|------------------------|-----------------------|
----------------------|------------------------|-----------------------|

--------------------------|--------------------9----|---------------------|
--10----10--9--7-----7----|--9------9--10--12-------|------7--------7--9--|
------------------9-------|-------------------------|---------------------|
--------------------------|-------------------------|---------------------|
--------------------------|-------------------------|---------------------|
--------------------------|-------------------------|---------------------|

------7---------------|---------------9--------|----12--11--9------9------|
--10-------------9----|----9--10--12-----------|---------------12---------|
----------------------|------------------------|--------------------------|
----------------------|------------------------|--------------------------|
----------------------|------------------------|--------------------------|
----------------------|------------------------|--------------------------|

---------------------------|-----------------------|---------------9----------|
--12------10--9--10--12----|------9--10--12--------|----9--10--12---------12--|
---------------------------|-----------------------|--------------------------|
---------------------------|-----------------------|--------------------------|
---------------------------|-----------------------|--------------------------|
---------------------------|-----------------------|--------------------------|

------9--------12--11--|--12--14------------9----|----9----11----12--------|
-----------------------|----------12-------------|---------------------12--|
-----------------------|-------------------------|-------------------------|
-----------------------|-------------------------|-------------------------|
-----------------------|-------------------------|-------------------------|
-----------------------|-------------------------|-------------------------|

----------------------|-----------------------|----------------------|----||
----------12----10----|--9----10----------10--|----9-----------------|----||
----------------------|-----------------------|---------11----9------|----||
----------------------|-----------------------|----------------------|----||
  x2
----------------------|-----------------------|----------------------|----||
----------------------|-----------------------|----------------------|----||

This is my first tab submission, but I am confident that this tab is mostly
correct.
If you have any issues with timing when reading this tab, the provided midi
is easy to
follow and piece together. If you notice any mistakes, or have any questions
or requests,
feel free to email me at [email protected]otmail.com

Thanks,

Kylan Mitchell
Login or Register to remove this ad.

4 comments on Ivan's Theme

Ah....Golden Sun... totally

Ah....Golden Sun... totally awesome game. We need more Golden Sun tabs.

It's a good job playing

It's a good job playing Ivan, I did well on his theme song but we need more golden sun tabs

Excellent job! I played it

Excellent job! I played it through, and it sounds perfect. Thanks for these tabs!

ljf

ljf