Ads

Forest's Requiem (Golden Sun) Guitar Tab

Submitted: Apr 05, 2009 by PlasticDragon (Last updated: Feb 03, 2010)

5
Average: 5 (4 votes)
Download | Listen
Game: Golden Sun
Composer(s): Motoi Sakuraba
Style: Arrangement, Fingerstyle

AutoScroll: Slow | Medium | Fast
Title: Forest's Requiem
Game: Golden Sun
Year: 2001
Composer: Motoi Sakuraba

Arranged by: Dan Hill
Date: April 5th, 2009

Note: The asterisk, as clarified below the tab and just above the key, denotes
a Da Capo or return to the beginning.  Listen to the MIDI for tempo.


     ^                 ^                  ^                 ^               
     Q    Q    Q       Q.     E  E  E     Q.     E  Q       Q    Q    Q     
E||------------0----|------------------|-----------------|-----------------|
B||-------1---------|--3------1--0-----|--0------1-------|--0----1---------|
G||--2--------------|--0------------2--|--2---------2----|--2---------2----|
D||--2--------------|------------------|-----------------|-----------------|
A||--0--------------|------------------|-----------------|-----------------|
E||-----------------|--3---------------|--2--------------|--1--------------|


  ^                 ^                  ^                 ^                 ^              
  Q.     E  Q       Q.     E  E  E     Q    Q    Q       Q    Q    Q       H        Q     
------------0----|------------------|-----------------|-----------------|--0--------0----|
---------1-------|--3------1--0-----|--0----1---------|--0----1----3----|--1-------------|
--2--------------|--0------------2--|--2---------2----|--2--------------|--0-------------|
--2--------------|------------------|-----------------|-----------------|----------------|
--0--------------|------------------|-----------------|-----------------|--3-------------|
-----------------|--3---------------|--2--------------|--1--------------|----------------|


  ^                 ^                          ^       ^                ^               
  Q    Q    Q       H        Q       Q    Q    Q       H        Q       Q    Q    Q     
-----------------|----------------|-----------------|--0--------0----|-----------------|
--3----1----0----|--1-------------|--0---------3----|--1-------------|--3----1----0----|
--0--------------|--2--------2----|-------5----0----|--0-------------|--0--------------|
-----------------|--2-------------|-----------------|----------------|-----------------|
--2--------------|--0-------------|------------2----|--3-------------|--2--------------|
-----------------|----------------|-----------------|----------------|-----------------|


  ^                 ^                 ^                    ^                  
  Q.     E  Q       Q    Q    Q       E  E  E  E  E  E     E  E  E  E  E  E   
------------0----|------------5----|--5--------0--------|--------7--5--------|
--1------3-------|--5--------------|-----8--6-----6-----|--7-----------8--7--|
--2--------------|--6--------------|--7--------------7--|-----4--------------|
--2--------------|-------7---------|--0-----------------|--4-----------------|
--0--------------|--4--------------|--------------------|--6-----------------|
-----------------|-----------------|--------------------|--------------------|


  ^    ^    ^       ^                 ^                ^                 ^             
  Q    Q    Q       Q.     E  Q       H        Q       Q.     E  Q       H.            
-----------------|---------0-------|----------------|------------5----|---------------|
--8----7----5----|--3---------7----|--5--------5----|--7------8-------|--8------------|
--9----7----5----|--0--------------|--5--------5----|--7--------------|--9------------|
-----------------|-----------------|----------------|-----------------|--9------------|
--7----5----3----|--2--------------|--3-------------|--5--------------|--7------------|
-----------------|-----------------|----------------|-----------------|--0------------|


  ^               ^                    ^                    ^                 
  H.              E  E  E  E  E  E     E  E  E  E  E  E     E  E  E  E  Q     
---------------|--------------------|--------------------|--------------0----|
--L------------|--1-----------0-----|--3--1--0-----------|-----0-----3-------|
--9------------|--2-----2--------5--|--1--------1-----1--|--5-----5----------|
--9------------|-----2-----5--------|--2-----------2-----|--7----------------|
--L------------|--0-----------------|--------------------|--0----------------|
--L------------|--------------------|--0-----------------|-------------------|


  ^                    ^    ^    ^       ^                    ^                  
  E  E  E  E  E  E     Q    Q    Q       E  E  E  E  E  E     E  E  E  E  E  E   
--------------------|-----------------|--------------------|-----------0-----0--|
--3-----------------|------------6----|--3--1--0-----------|--1-----1-----3-----|
-----2--0-----0--2--|--2----7----7----|--0--------2--0-----|-----0--------------|
--4--------4--------|--3----7----7----|--0--------------0--|--2-----------------|
--5-----------------|--5----5----5----|--------------------|--3-----------------|
--------------------|-----------------|--3-----------------|--------------------|


  ^                 ^                    ^                    ^                 
  Q    Q    Q       E  E  E  E  E  E     E  E  E  E  E  E     E  E  E  E  Q     
-----------------|--------------------|--------------------|--------------0----|
--3----0---------|--1-----------0-----|--3--1--0-----------|-----0-----3-------|
--0--------------|--2-----2--------5--|--1--------1-----1--|--5-----5----------|
------------0----|-----2-----5--------|--2-----------2-----|--7----------------|
--2--------------|--0-----------------|--------------------|--0----------------|
-----------------|--------------------|--0-----------------|-------------------|


  ^                    ^    ^    ^       ^                    ^                  
  E  E  E  E  E  E     Q    Q    Q       E  E  E  E  E  E     E  E  E  E  E  E   
--------------------|-----------------|--------------------|-----------0-----0--|
--3-----------------|------------6----|--3--1--0-----------|--1-----1-----3-----|
-----2--0-----0--2--|--2----7----7----|--0--------2--0-----|-----0--------------|
--4--------4--------|--3----7----7----|--0--------------0--|--2-----------------|
--5-----------------|--5----5----5----|--------------------|--3-----------------|
--------------------|-----------------|--3-----------------|--------------------|


  ^                 ^                 ^                  ^               
  Q    Q    Q    *  Q    Q    Q       Q.     E  E  E     Q.     E  Q     
-----------------|------------0----|------------------|-----------------|
--3----0---------|-------1---------|--3------1--0-----|--0------1-------|
--0--------------|--2--------------|--0------------2--|--2---------2----|
------------0----|--2--------------|------------------|-----------------|
--2--------------|--0--------------|------------------|-----------------|
-----------------|-----------------|--3---------------|--2--------------|


  ^                     ^                                                              
            |--3--|                                                                    
  Q    Q    E  E  E     H.          
---------------------|--0------------||
--0----1----0--------|--2------------||
--2------------2-----|--2------------||
------------------3--|--2------------||
---------------------|--0------------||
--1------------------|---------------||

* = D.C. (return to the beginning and play through to the end)



Duration Legend
---------------
W - whole
H - half
Q - quarter
E - 8th
S - 16th
T - 32nd
X - 64th
. - note dotted
|-n-|  - n-tuplets


Tablature Legend
----------------
L - tied note
x - dead note
g - grace note
(n) - ghost note
> - accentuded note
NH - natural harmonic
AH - artificial harmonic
TH - tapped harmonic
SH - semi harmonic
PH - pitch harmonic
h - hammer on
p - pull off
b - bend
br - bendRelease
pb - preBend
pbr - preBendRelease
brb - bendReleaseBend
\n/ - tremolo bar dip
\n - tremolo bar dive
-/n - tremolo bar Release up
/n\ - tremolo bar inverted dip
/n - tremolo bar return
-\n - tremolo bar Release down
S - shift slide
s - legato slide
/ -  slide into from below or out of upwards
\ -  slide into from above or out of downwards
~ - vibrato
W - wide vibrato
tr - trill
TP - tremolo picking
T - tapping
S - slap
P - pop
< - fade in
^ - brush up
v - brush down
Login or Register to remove this ad.

3 comments on Forest's Requiem

good song =]

good song =]

cool

5

love this song man, thanks

Perfect ^^

5

Nice song, great tab ^^