The Elemental Stars (Golden Sun) Bass/Guitar Tab

Submitted: Apr 05, 2009 by PlasticDragon (Last updated: Apr 05, 2010)

5
Average: 5 (3 votes)
Download | Listen
Game: Golden Sun
Composer(s): Motoi Sakuraba
Style: 2 or more instruments, Arrangement

This song is also called Sol Sanctum

AutoScroll: Slow | Medium | Fast
Title: The Elemental Stars*
Game: Golden Sun
Year: 2001
Composer: Motoi Sakuraba

Arranged by: Dan Hill
Date: April 4th, 2009

*Also called "Sol Sanctum"

Note 1: The time signature changes from 3/4 to 5/4 when the acoustic guitars come in harmonizing.
This can also be marked by the point where you begin to see five quarter notes per measure.  Listen
to the MIDI if you're confused.

Note 2: I tried to condense this song into as few instruments as possible.  The low bass notes on the 
acoustic parts toward the end are nonessential, but I felt the need to include them for both dynamics
and to carry the progression while the bass is busy playing a background melody.  Enjoy.


                                                                      
                                    Acoustic I

     
    
     E  E  E  E  E  E     E  E  E  E  E  E     E  E  E  E  E  E     E  E  E  E  E  E   
E||--------------------|--------------------|--------------------|--------------------|
B||--0-----------------|--0-----------------|--0-----------------|--0-----------------|
G||--------2--0--------|--------2--0--------|--------2--0--------|--------2--0--------|
D||-----2--------4--2--|-----2--------4--2--|-----2--------4--2--|-----2--------4--2--|
A||--------------------|--------------------|--------------------|--------------------|
E||--------------------|--------------------|--------------------|--------------------|


  E  E  E  E  E  E     E  E  E  E  E  E     E  E  E  E  E  E     E  E  E  E  E  E   
--------------------|--------------------|--------------------|--------------------|
--0-----------------|--0-----------------|--0-----------------|--0-----------------|
--------2--0--------|--------2--0--------|--------2--0--------|--------2--0--------|
-----2--------4--2--|-----2--------4--2--|-----2--------4--2--|-----2--------4--2--|
--------------------|--------------------|--------------------|--------------------|
--------------------|--------------------|--------------------|--------------------|


  E  E  E  E  E  E     E  E  E  E  E  E     E  E  E  E  E  E     E  E  E  E  E  E   
--------------------|--------------------|--------------------|--------------------|
--0-----------------|--0-----------------|--0-----------------|--0-----------------|
--------2--0--------|--------2--0--------|--------2--0--------|--------2--0--------|
-----2--------4--2--|-----2--------4--2--|-----2--------4--2--|-----2--------4--2--|
--------------------|--------------------|--------------------|--------------------|
--------------------|--------------------|--------------------|--------------------|


  E  E  E  E  E  E     E  E  E  E  E  E     E  E  E  E  E  E     E  E  E  E  E  E   
--------------------|--------------------|--------------------|--------------------|
--0-----------------|--0-----------------|--0-----------------|--0-----------------|
--------2--0--------|--------2--0--------|--------2--0--------|--------2--0--------|
-----2--------4--2--|-----2--------4--2--|-----2--------4--2--|-----2--------4--2--|
--------------------|--------------------|--------------------|--------------------|
--------------------|--------------------|--------------------|--------------------|


  E  E  E  E  E  E     E  E  E  E  E  E     E  E  E  E  E  E     E  E  E  E  E  E   
--------------------|--------------------|--------------------|--------------------|
--0-----------------|--0-----------------|--0-----------------|--0-----------------|
--------2--0--------|--------2--0--------|--------2--0--------|--------2--0--------|
-----2--------4--2--|-----2--------4--2--|-----2--------4--2--|-----2--------4--2--|
--------------------|--------------------|--------------------|--------------------|
--------------------|--------------------|--------------------|--------------------|


  E  E  E  E  E  E  E  E  Q       E  E  E  E  E  E  E  E  Q     
-------------------------------|-------------------------------|
-------------------------------|-------------------------------|
-------------------------------|-------------------------------|
--5--4--5--4--5--4--5--4--7----|--5--4--5--4--5--4--5--7--0----|
-------------------------------|-------------------------------|
-------------------------------|-------------------------------|


  E  E  E  E  E  E  E  E  Q       E  E  E  E  E  E  E  E  Q     
-------------------------------|-------------------------------|
-------------------------------|-------------------------------|
-------------------------------|-------------------------------|
--5--4--5--4--5--4--5--4--7----|--5--4--5--4--5--4--5--7--0----|
-------------------------------|-------------------------------|
-------------------------------|-------------------------------|


  E  E  E  E  E  E  E  E  Q       E  E  E  E  E  E  E  E  Q     
-------------------------------|-------------------------------|
-------------------------------|-------------------------------|
-------------------------------|-------------------------------|
--5--4--5--4--5--4--5--4--7----|--5--4--5--4--5--4--5--7--0----|
-------------------------------|-------------------------------|
-------------------------------|-------------------------------|


  E  E  E  E  E  E  E  E  Q       E  E  E  E  E  E  E  E  Q     
-------------------------------|-------------------------------|
-------------------------------|-------------------------------|
-------------------------------|-------------------------------|
--5--4--5--4--5--4--5--4--7----|--5--4--5--4--5--4--5--7--0----|
-------------------------------|-------------------------------|
-------------------------------|-------------------------------|


  E  E  E  E  E  E  E  E  Q       E  E  E  E  E  E  E  E  Q     
-------------------------------|-------------------------------|
-------------------------------|-------------------------------|
-------------------------------|-------------------------------|
--5--4--5--4--5--4--5--4--7----|--5--4--5--4--5--4--5--7--0----|
-------------------------------|-------------------------------|
-------------------------------|-------------------------------|


  E  E  E  E  E  E  E  E  Q       E  E  E  E  E  E  E  E  Q     
-------------------------------|-------------------------------|
-------------------------------|-------------------------------|
-------------------------------|-------------------------------|
--5--4--5--4--5--4--5--4--7----|--5--4--5--4--5--4--5--7--0----|
-------------------------------|-------------------------------|
-------------------------------|-------------------------------|


  ^                               ^                             
  E  E  E  E  E  E  E  E  Q       E  E  E  E  E  E  E  E  Q     
-------------------------------|-------------------------------|
-------------------------------|-------------------------------|
-------------------------------|-------------------------------|
--5--4--5--4--5--4--5--4--7----|--5--4--5--4--5--4--5--4--0----|
-------------------------------|-------------------------------|
--0--L--L--L--L--L--L--L--L----|--0--L--L--L--L--L--L--L--L----|


  ^                               ^                             
  E  E  E  E  E  E  E  E  Q       E  E  E  E  E  E  E  E  Q     
-------------------------------|-------------------------------|
-------------------------------|-------------------------------|
-------------------------------|-------------------------------|
--5--4--5--4--5--4--5--4--7----|--5--4--5--4--5--4--5--4--0----|
-------------------------------|-------------------------------|
--0--L--L--L--L--L--L--L--L----|--0--L--L--L--L--L--L--L--L----|


  ^                               ^                             
  E  E  E  E  E  E  E  E  Q       E  E  E  E  E  E  E  E  Q     
-------------------------------|-------------------------------|
-------------------------------|-------------------------------|
-------------------------------|-------------------------------|
--5--4--5--4--5--4--5--4--7----|--5--4--5--4--5--4--5--4--0----|
--3--L--L--L--L--L--L--L--L----|--3--L--L--L--L--L--L--L--L----|
-------------------------------|-------------------------------|


  ^                               ^                                                     
  E  E  E  E  E  E  E  E  Q       E  E  E  E  E  E  E  E  Q                             
-------------------------------|-------------------------------||
-------------------------------|-------------------------------||
-------------------------------|-------------------------------||
--5--4--5--4--5--4--5--4--7----|--5--4--5--4--5--4--5--7--0----||
-------------------------------|--5--L--L--L--L--L--L--L--L----||
--0--L--L--L--L--L--L--L--L----|-------------------------------||



						Acoustic II

     
   
     H.              E  E  E  E  E  E     E  E  E  E  E  E     E  E  E  E  E  E   
E||---------------|--------------------|--------------------|--------------------|
B||---------------|--------------------|--------------------|--------------------|
G||---------------|--9--7--------7-----|--9--7--------7-----|--9--7--------7-----|
D||---------------|-----------9-----9--|-----------9-----9--|-----------9-----9--|
A||---------------|--------------------|--------------------|--------------------|
E||---------------|--------------------|--------------------|--------------------|


  E  E  E  E  E  E     E  E  E  E  E  E     E  E  E  E  E  E     E  E  E  E  E  E   
--------------------|--------------------|--------------------|--------------------|
--------------------|--------------------|--------------------|--------------------|
--9--7--------7-----|--9--7--------7-----|--9--7--------7-----|--9--7--------7-----|
-----------9-----9--|-----------9-----9--|-----------9-----9--|-----------9-----9--|
--------------------|--------------------|--------------------|--------------------|
--------------------|--------------------|--------------------|--------------------|


  E  E  E  E  E  E     E  E  E  E  E  E     E  E  E  E  E  E     E  E  E  E  E  E   
--------------------|--------------------|--------------------|--------------------|
--------------------|--------------------|--------------------|--------------------|
--9--7--------7-----|--9--7--------7-----|--9--7--------7-----|--9--7--------7-----|
-----------9-----9--|-----------9-----9--|-----------9-----9--|-----------9-----9--|
--------------------|--------------------|--------------------|--------------------|
--------------------|--------------------|--------------------|--------------------|


  E  E  E  E  E  E     E  E  E  E  E  E     E  E  E  E  E  E     E  E  E  E  E  E   
--------------------|--------------------|--------------------|--------------------|
--------------------|--------------------|--------------------|--------------------|
--9--7--------7-----|--9--7--------7-----|--9--7--------7-----|--9--7--------7-----|
-----------9-----9--|-----------9-----9--|-----------9-----9--|-----------9-----9--|
--------------------|--------------------|--------------------|--------------------|
--------------------|--------------------|--------------------|--------------------|


  E  E  E  E  E  E     E  E  E  E  E  E     E  E  E  E  E  E     E  E  E  E  E  E   
--------------------|--------------------|--------------------|--------------------|
--------------------|--------------------|--------------------|--------------------|
--9--7--------7-----|--9--7--------7-----|--9--7--------7-----|--9--7--------7-----|
-----------9-----9--|-----------9-----9--|-----------9-----9--|-----------9-----9--|
--------------------|--------------------|--------------------|--------------------|
--------------------|--------------------|--------------------|--------------------|


  E  E  E  E  E  E  E  E  Q       E  E  E  E  E  E  E  E  Q     
-------------------------------|-------------------------------|
-------------------------------|-------------------------------|
-------------------------------|-------------------------------|
--2--0--2--0--2--0--2--0--4----|--2--0--2--0--2--0--2--4--0----|
-------------------------------|-------------------------------|
-------------------------------|-------------------------------|


  E  E  E  E  E  E  E  E  Q       E  E  E  E  E  E  E  E  Q     
-------------------------------|-------------------------------|
-------------------------------|-------------------------------|
-------------------------------|-------------------------------|
--2--0--2--0--2--0--2--0--4----|--2--0--2--0--2--0--2--4--0----|
-------------------------------|-------------------------------|
-------------------------------|-------------------------------|


  E  E  E  E  E  E  E  E  Q       E  E  E  E  E  E  E  E  Q     
-------------------------------|-------------------------------|
-------------------------------|-------------------------------|
-------------------------------|-------------------------------|
--2--0--2--0--2--0--2--0--4----|--2--0--2--0--2--0--2--4--0----|
-------------------------------|-------------------------------|
-------------------------------|-------------------------------|


  E  E  E  E  E  E  E  E  Q       E  E  E  E  E  E  E  E  Q     
-------------------------------|-------------------------------|
-------------------------------|-------------------------------|
-------------------------------|-------------------------------|
--2--0--2--0--2--0--2--0--4----|--2--0--2--0--2--0--2--4--0----|
-------------------------------|-------------------------------|
-------------------------------|-------------------------------|


  E  E  E  E  E  E  E  E  Q       E  E  E  E  E  E  E  E  Q     
-------------------------------|-------------------------------|
-------------------------------|-------------------------------|
-------------------------------|-------------------------------|
--2--0--2--0--2--0--2--0--4----|--2--0--2--0--2--0--2--4--0----|
-------------------------------|-------------------------------|
-------------------------------|-------------------------------|


  E  E  E  E  E  E  E  E  Q       E  E  E  E  E  E  E  E  Q     
-------------------------------|-------------------------------|
-------------------------------|-------------------------------|
-------------------------------|-------------------------------|
--2--0--2--0--2--0--2--0--4----|--2--0--2--0--2--0--2--4--0----|
-------------------------------|-------------------------------|
-------------------------------|-------------------------------|


  >                               >                             
  E  E  E  E  E  E  E  E  Q       E  E  E  E  E  E  E  E  Q     
-------------------------------|-------------------------------|
-------------------------------|-------------------------------|
-------------------------------|-------------------------------|
--2--0--2--0--2--0--2--0--4----|--2--0--2--0--2--0--2--4--0----|
-------------------------------|-------------------------------|
--0--L--L--L--L--L--L--L--L----|--0--L--L--L--L--L--L--L--L----|


  >                               >                             
  E  E  E  E  E  E  E  E  Q       E  E  E  E  E  E  E  E  Q     
-------------------------------|-------------------------------|
-------------------------------|-------------------------------|
-------------------------------|-------------------------------|
--2--0--2--0--2--0--2--0--4----|--2--0--2--0--2--0--2--4--0----|
-------------------------------|-------------------------------|
--0--L--L--L--L--L--L--L--L----|--0--L--L--L--L--L--L--L--L----|


  >                               >                             
  E  E  E  E  E  E  E  E  Q       E  E  E  E  E  E  E  E  Q     
-------------------------------|-------------------------------|
-------------------------------|-------------------------------|
-------------------------------|-------------------------------|
--2--0--2--0--2--0--2--0--4----|--2--0--2--0--2--0--2--4--0----|
--3--L--L--L--L--L--L--L--L----|--3--L--L--L--L--L--L--L--L----|
-------------------------------|-------------------------------|


  >                               >                                                     
  E  E  E  E  E  E  E  E  Q       E  E  E  E  E  E  E  E  Q                             
-------------------------------|-------------------------------||
-------------------------------|-------------------------------||
-------------------------------|-------------------------------||
--2--0--2--0--2--0--2--0--4----|--2--0--2--0--2--0--2--4--0----||
-------------------------------|--5--L--L--L--L--L--L--L--L----||
--0--L--L--L--L--L--L--L--L----|-------------------------------||



					Lead

    
     H        Q       H        Q       H        Q       H        Q     
E||----------------|----------------|----------------|----------------|
B||----------------|----------------|----------------|----------------|
G||----------------|----------------|----------------|----------------|
D||----------------|----------------|----------------|----------------|
A||----------------|----------------|----------------|----------------|
E||----------------|----------------|----------------|----------------|


   Q      H            Q.       Q.         S   S  E   H           H        E  E   
--10b-----L--------|--14~------10~------|--7h-10p-7~--L--------|--L--------L--0--|
-------------------|--------------------|----------------------|-----------------|
-------------------|--------------------|----------------------|-----------------|
-------------------|--------------------|----------------------|-----------------|
-------------------|--------------------|----------------------|-----------------|
-------------------|--------------------|----------------------|-----------------|


  Q.       E  E   E     S  S  Q      E   E  E      Q      E.  T T Q        H.            
--7~------10--9------|--------------12--10--9--|--10~-----L---9-8-7~----|--L------------|
-----------------10--|--8-10-12~---------------|------------------------|---------------|
---------------------|-------------------------|------------------------|---------------|
---------------------|-------------------------|------------------------|---------------|
---------------------|-------------------------|------------------------|---------------|
---------------------|-------------------------|------------------------|---------------|


  H.               Q.      Q.        H.               Q.     Q.        Q.      Q     E   
----------------|-----------------|----------------|----------------|-------------------|
----------------|-----------------|----------------|----------------|-------------------|
--9~------------|--7------11------|--9~------------|--5------7------|--9------11----12--|
----------------|-----------------|----------------|----------------|-------------------|
----------------|-----------------|----------------|----------------|-------------------|
----------------|-----------------|----------------|----------------|-------------------|


   Q.      Q.         Q.      Q     E      H.               W                 Q     
-------------------|-------------------|-----------------|-------------------------|
--10~--------------|-------------------|--10~------------|-------------------------|
-----------7~------|--9------11----12--|-----------------|-------------------------|
-------------------|-------------------|-----------------|-------------------------|
-------------------|-------------------|-----------------|-------------------------|
-------------------|-------------------|-----------------|-------------------------|



  W                 Q       W                 Q        W                Q         
-------------------------|-------------------------|-------------------------|
-------------------------|-------------------------|-------------------------|
-------------------------|-------------------------|-------------------------|
-------------------------|-------------------------|-------------------------|
-------------------------|-------------------------|-------------------------|
-------------------------|-------------------------|-------------------------|


   W                Q       W                 Q       H.            H         
------------------------|-------------------------|-------------------------|
--8----------------L----|--7~----------------3----|--5~------------8--------|
------------------------|-------------------------|-------------------------|
------------------------|-------------------------|-------------------------|
------------------------|-------------------------|-------------------------|
------------------------|-------------------------|-------------------------|


  H.            H           W                  Q        H.            Q    Q     
-------------------------|--------------------------|---------------------------|
--7~------------3--------|--5~----------------12----|--10~------------8----7----|
-------------------------|--------------------------|---------------------------|
-------------------------|--------------------------|---------------------------|
-------------------------|--------------------------|---------------------------|
-------------------------|--------------------------|---------------------------|


  H.            H            H.             H             W                   Q     
--------------------------|---------------------------|--14b~-----------------L----|
--5~------------7~--------|--8~------------10---------|----------------------------|
----------------7---------|--9-------------11~--------|----------------------------|
--------------------------|---------------------------|----------------------------|
--------------------------|---------------------------|----------------------------|
--------------------------|---------------------------|----------------------------|


   H.             H             H.             H              H.             H          
--14~-----------------------|--12~------------14b~--------|--14~-----------------------|
-----------------15~--------|-----------------------------|-----------------15~--------|
----------------------------|-----------------------------|----------------------------|
----------------------------|-----------------------------|----------------------------|
----------------------------|-----------------------------|----------------------------|
----------------------------|-----------------------------|----------------------------|


                                                     |----3----|   
   W                  Q         H.             Q     E    E    E   
--12~----------------17b----|--17~------------15----14h--15p--14--|
----------------------------|-------------------------------------|
----------------------------|-------------------------------------|
----------------------------|-------------------------------------|
----------------------------|-------------------------------------|
----------------------------|-------------------------------------|


   H.             H             H.             H           
-----------------14---------|--15-------------17~--------||
--17~------------15~--------|--17~------------19---------||
----------------------------|----------------------------||
----------------------------|----------------------------||
----------------------------|----------------------------||
----------------------------|----------------------------||



							Bass


     H        Q       H        Q       H        Q       H        Q       H        Q     
G||----------------|----------------|----------------|----------------|----------------|
D||----------------|----------------|----------------|----------------|----------------|
A||----------------|----------------|----------------|----------------|----------------|
E||----------------|----------------|----------------|----------------|----------------|


  H        Q       H        Q       H        Q       H        Q       H        Q     
----------------|----------------|----------------|----------------|----------------|
----------------|----------------|----------------|----------------|----------------|
----------------|----------------|----------------|----------------|----------------|
----------------|----------------|----------------|----------------|----------------|


  H        Q       H        Q       H.              H.              H.            
----------------|----------------|---------------|---------------|---------------|
----------------|----------------|---------------|---------------|--2------------|
----------------|----------------|--3------------|--5------------|---------------|
----------------|----------------|---------------|---------------|---------------|


  Q.     Q.        H.              H.              H.              H.            
----------------|---------------|---------------|---------------|---------------|
----------------|---------------|---------------|--2------------|--L------------|
----------------|---------------|--5------------|---------------|--5------------|
--5------7------|--8------------|---------------|---------------|---------------|


  W                Q       W                Q       W                Q     
------------------------|------------------------|------------------------|
------------------------|------------------------|------------------------|
------------------------|------------------------|------------------------|
------------------------|------------------------|------------------------|


  W                Q       Q    Q     Q     Q    Q       Q    Q     Q     Q     Q     
------------------------|------------11----12----9----|------------11----12----14----|
------------------------|-------9---------------------|-------9----------------------|
------------------------|--7--------------------------|--7---------------------------|
------------------------|-----------------------------|------------------------------|


   Q    Q     Q     Q    Q       Q    Q     Q     Q     Q     
--12---------11----12----9----|------------11----12----14----|
--------9---------------------|-------9----------------------|
------------------------------|--7---------------------------|
------------------------------|------------------------------|


  Q    Q     Q     Q    Q       Q    Q     Q     Q     Q     
------------11----12----9----|------------11----12----14----|
-------9---------------------|-------9----------------------|
--7--------------------------|--7---------------------------|
-----------------------------|------------------------------|


   Q    Q     Q     Q    Q       Q    Q     Q     Q     Q     
--12---------11----12----9----|------------11----12----14----|
--------9---------------------|-------9----------------------|
------------------------------|--7---------------------------|
------------------------------|------------------------------|


  Q    Q     Q     Q    Q       Q    Q     Q     Q     Q     
------------11----12----9----|------------11----12----14----|
-------9---------------------|-------9----------------------|
--7--------------------------|--7---------------------------|
-----------------------------|------------------------------|


   Q    Q     Q     Q    Q       Q    Q     Q     Q     Q     
--12---------11----12----9----|------------11----12----14----|
--------9---------------------|-------9----------------------|
------------------------------|--7---------------------------|
------------------------------|------------------------------|


  Q    Q     Q     Q    Q       Q    Q     Q     Q     Q     
------------11----12----9----|------------11----12----14----|
-------9---------------------|-------9----------------------|
--7--------------------------|--7---------------------------|
-----------------------------|------------------------------|


   Q    Q     Q     Q    Q       Q    Q     Q     Q     Q                             
--12---------11----12----9----|------------11----12----14----||
--------9---------------------|-------9----------------------||
------------------------------|--7---------------------------||
------------------------------|------------------------------||






Duration Legend
---------------
W - whole
H - half
Q - quarter
E - 8th
S - 16th
T - 32nd
X - 64th
. - note dotted
|-n-|  - n-tuplets


Tablature Legend
----------------
L - tied note
x - dead note
g - grace note
(n) - ghost note
> - accentuded note
NH - natural harmonic
AH - artificial harmonic
TH - tapped harmonic
SH - semi harmonic
PH - pitch harmonic
h - hammer on
p - pull off
b - bend
br - bendRelease
pb - preBend
pbr - preBendRelease
brb - bendReleaseBend
\n/ - tremolo bar dip
\n - tremolo bar dive
-/n - tremolo bar Release up
/n\ - tremolo bar inverted dip
/n - tremolo bar return
-\n - tremolo bar Release down
S - shift slide
s - legato slide
/ -  slide into from below or out of upwards
\ -  slide into from above or out of downwards
~ - vibrato
W - wide vibrato
tr - trill
TP - tremolo picking
T - tapping
S - slap
P - pop
< - fade in
^ - brush up
v - brush down

Login or Register to remove this ad.

1 comment on The Elemental Stars

awesome

5

awesome