Ads

Magma Rock (Golden Sun: The Lost Age) Guitar Tab

Submitted: Dec 28, 2007 by Gloups

5
Average: 5 (2 votes)
Download | Listen
Game: Golden Sun: The Lost Age
Composer(s): Motoi Sakuraba
Style: Transcription

AutoScroll: Slow | Medium | Fast
                        > MAGMA ROCK <
                                From : Golden Sun : The lost age
                                                 
tempo : 110

e|-----------------------------------------8-10-13--12-10--12----11-10---8---7-6
B|---------8-10--------------------9-10-12--------------------12-----------8----
G|-9----11------8---------9---10------------------------------------------------
D|-------------------9----------------------------------------------------------
A|------------------------------------------------------------------------------
E|------------------------------------------------------------------------------

//
Hard part #1 (much faster)
e|------------------------------------
B|------------------------------------
G|---------------------7---9-----7-9--
D|-----------------------------9------      X2
A|--7-7-7-7----7-7-7-7---7---7--------
E|----------10------------------------
//

e|-----------------------------------7----
B|-8-----10-8-------------------8-10------
G|------------10-9----7-9-10-10-----------
D|----------------------------------------
A|----------------------------------------
E|----------------------------------------



e|---------------------------
B|---------------------------
G|---------------------------
D|---------------------------       X 12
A|---------------------------
E|--5--3--5-3--5--5-3--5--3--

                                 
And instead of the last 4 times you can play :

e|--------------------------------------------------------------------
B|--------------------------------------------------------------------
G|--------------------------------------------------------------------
D|--7----------------9----------------10---------------12-------------
A|--7----------------10---------------8----------------10-------------
E|--5----------------7----------------8----------------10-------------



Hard part #2 ( Solo ! xD )  


e|-------------------17-------20-19-17------------------------------------------
B|-------------17----------------------17-15-17----15----------------15---------
G|--17-16-17------------------------------------17----16-17-14-16-17----17-16--
D|------------------------------------------------------------------------------
A|------------------------------------------------------------------------------
E|------------------------------------------------------------------------------

e|------17--20---19---20---22-------20-19-17--
B|---17---------------------------------------
G|17------------------------------------------
D|--------------------------------------------
A|--------------------------------------------
E|--------------------------------------------

VoilĂ , voilĂ ! I've checked many times and I think it's all good but 
if you find mistakes you can email me at : [email protected] . 
I'm a big fan of Golden Sun so if you want other tabs from this game 
please tell me and I'll try to post them on this site.
Login or Register to remove this ad.

2 comments on Magma Rock

awesome!! can you get the

awesome!! can you get the final battle song up?

yeah i'm searching for the

yeah i'm searching for the doom dragon final boss battle tab too.