Ads

Battle! Jenna (Golden Sun: The Lost Age) Guitar Tab

Submitted: Jan 02, 2009 by Gloups

0
Download | Listen
Game: Golden Sun: The Lost Age
Composer(s): Motoi Sakuraba
Style: Transcription

AutoScroll: Slow | Medium | Fast
                                > Battle! [Jenna] <
                                   From : Golden Sun - The Lost Age
                                   Compositor :  Motoi Sakuraba                                         

Tabbed by : Gloups
Date: 01.01.2009

Tempo : 135

                        |.optional part...|                     |...optional....|
E||---------------------|-----------------|---------------------|---------------|
B||--8-8---8-7-----7----|-8-7-8-10-10-8-7-|-----7-8---8-7-------|--7-8-10--8-7--|
G||------9------7-----9-|-----------------|-(9)-----9-----7-----|---------------|
D||---------------------|-----------------|-----------------7-9-|---------------|
A||---------------------|-----------------|---------------------|---------------|
E||---------------------|-----------------|---------------------|---------------|



                        |...optional....|
E||---------------------|---------------|-------------------------------------|
B||--8-----8-7-----7----|-7-8-10-10-8-7-|-----7-8---8-7-----------------------|
G||------9------7-----9-|---------------|---9-----9-----9--7--9---------------|
D||---------------------|---------------|-------------------------------------|
A||---------------------|---------------|-------------------------------------|
E||---------------------|---------------|-------------------------------------|




E||----------------------------------------------------3-2------------------|
B||---------------------------3--5-------------------3-----3-------3-5------|
G||-----------2-----2--4---5-------2--4-2-4--2---------------4---5-----2----|
D||--2--4--5-----5-----------------------------5-4-5------------------------|
A||-------------------------------------------------------------------------|
E||-------------------------------------------------------------------------|




E||-----------------------------------3-2-------2---3-----------------------|
B||------3-----------------------3--------3--5------------------------------|
G||-4--2---4--2--------------4-2---4----------------------------------------|
D||-------------5-4-2--4--5-------------------------------------------------|
A||-------------------------------------------------------------------------|
E||-------------------------------------------------------------------------|
Login or Register to remove this ad.