Login or Register to remove this ad.

Mewt (Final Fantasy Tactics Advance) Guitar Tab

Submitted: Sep 29, 2007 by Kabukibear (Last updated: Nov 27, 2009)

4.69231
Average: 4.7 (13 votes)
Download | Listen
Game: Final Fantasy Tactics Advance
Composer(s): Nobuo Uematsu, Hitoshi Sakimoto, Kaori Ohkoshi, Ayako Saso
Style: 2 or more instruments, Arrangement, Fingerstyle, Natural harmonics, Transcription, Tremolo
Series: Final Fantasy

AutoScroll: Slow | Medium | Fast
Mewt (Acoustic Guitar Version)
~ White Melodies of Final Fantasy Tactics Advance
Composed by:
Hitoshi Sakimoto, Nobuo Uematsu, Kaori Ohkoshi, Ayako Saso
Arranged by:
Yo Yamazaki, Akira Sasaki, Satoshi Henmi
Tabbed by: Justin Lincoln

Guitar 1

              NH
     Q        Q    H           H           Q    Q          H        Q    Q
E||-------------------------|-------------------0----|------------------------|
B||----------12-------------|-----------8g10---------|--8g10--------8---------|
G||--4/---------------------|------------------------|-------------------7----|
D||-------------------------|------------------------|------------------------|
A||-------------------------|------------------------|------------------------|
E||-------------------------|------------------------|------------------------|

  Q      H           Q       Q       H.                Q      H          Q
--------------------------|-----------------------|---------------------------|
--8----8g7----------------|-----------------------|---------------------------|
--------------------------|-----------------------|--5g7---------------5g7----|
------------------7g10----|--9\----5g7------------|---------5g7---------------|
--------------------------|-----------------------|---------------------------|
--------------------------|-----------------------|---------------------------|

              NH                                         NH
  H           H             W                   Q        Q    H
-----------------------|--5g7----------------|-------------------------|
-------------12--------|---------------------|----------12-------------|
--5--------------------|---------------------|--4/---------------------|
-----------------------|---------------------|-------------------------|
-----------------------|---------------------|-------------------------|
-----------------------|---------------------|-------------------------|

  H           Q    Q          H        Q    Q         Q      H        Q
-------------------0----|------------------------|-------------------------|
-----------8g10---------|--8g10--------8---------|--7g8----8g7-------------|
------------------------|-------------------7----|--------------------5----|
------------------------|------------------------|-------------------------|
------------------------|------------------------|-------------------------|
------------------------|------------------------|-------------------------|

                                                               NH
  Q      H.                Q    H          Q       H           H
----------------------|-------------------------|-----------------------|
----------------------|-------------------------|-------------12--------|
--4----4g2------------|--5g7-------------5g7----|--5--------------------|
----------------------|---------7---------------|-----------------------|
----------------------|-------------------------|-----------------------|
----------------------|-------------------------|-----------------------|

    W                     H.           Q       E  E    H         Q
--5g7----------------|--5g7------------5----|--7--5--5g7---------9----|
---------------------|--7g8------------7----|--8--7--7g8--------10----|
---------------------|----------------------|-------------------------|
---------------------|----------------------|-------------------------|
---------------------|----------------------|-------------------------|
---------------------|----------------------|-------------------------|

   W                      Q     H          Q         H.           Q
--10----------------|--8g10-----9--------3g5----|--5g7------------5----|
--12----------------|--8g10----10--------5g7----|--7g8------------7----|
--------------------|---------------------------|----------------------|
--------------------|---------------------------|----------------------|
--------------------|---------------------------|----------------------|
--------------------|---------------------------|----------------------|

  E  E    Q    Q     Q        Q     H.               H          Q     Q
--7--5--5g7----7-----9----|--10----12------------|--12---------------------|
--8--7--7g8----7----10----|--12----10------------|------------5g7----10----|
--------------------------|----------------------|------------6g7----11----|
--------------------------|----------------------|-------------------------|
--------------------------|----------------------|-------------------------|
--------------------------|----------------------|-------------------------|

   Q    E    E    Q.       E     E  E    H.
------------------------------|-----------------------|
--10----8--(10)---------------|-----------------------|
--11----9---11---11-----------|--4--2--2g4------------|
-----------------12------5g7--|--5--4--4g5------------|
------------------------------|-----------------------|
------------------------------|-----------------------|

             NH      NH    NH                 NH      NH
  Q.         Q       E     Q       Q.         Q       Q.
--------------------------12----|----------------------------|
------------12------------------|------------12--------------|
--------------------12----------|--------------------12------|
--2/----------------------------|--5/------------------------|
--------------------------------|----------------------------|
--------------------------------|----------------------------|

             NH      NH    NH                 NH
  Q.         Q       E     Q       Q.         H        E
--------------------------12----|-------------------------|
------------12------------------|------------12-----------|
--5/----------------12----------|--4/---------------------|
--------------------------------|-------------------------|
--------------------------------|-------------------------|
--------------------------------|-------------------------|

             NH      NH    NH                 NH      NH
  Q.         Q       E     Q       Q.         Q       Q.
--------------------------12----|----------------------------|
------------12------------------|------------12--------------|
--------------------12----------|--------------------12------|
--2/----------------------------|--5/------------------------|
--------------------------------|----------------------------|
--------------------------------|----------------------------|

             NH      NH    NH                 NH
  Q.         Q       E     Q       Q.         Q.      S   S  S   S
--------------------------12----|---------------------------10h-12-|
------------12------------------|------------12------10h-12--------|
--5/----------------12----------|--4/------------------------------|
--------------------------------|----------------------------------|
--------------------------------|----------------------------------|
--------------------------------|----------------------------------|

   H         E   S   S  S  S  S  S
--12---------L--10h-12-10----------|
--------------------------12-10-12-|
-----------------------------------|
-----------------------------------|
-----------------------------------|
-----------------------------------|

   S   S  S  S  Q.        S    S   S   S  S  S    S  S S  S H        E  S S
-----------------------------------------------|----------------------------|
--10h-12-10------------------------------------|----------------------------|
------------12--L------9g12S-(11)-11h-12-11S-9-|--9p-7-7h-9-L---------------|
-----------------------------------------------|------------------------7-9-|
-----------------------------------------------|----------------------------|
-----------------------------------------------|----------------------------|

              >   >         ^
  S S S S   S S S S S S S S S  S S S      Q.     S S S S E  Q
-------------------------------------|---------------------------|
------7-8h-10-8-7-8-7-------7h-8-7---|---------------------------|
--7-9-----------------9-7-9--------9-|--7g9----------7-9-7--L----|
-------------------------------------|-----------7-9-------------|
-------------------------------------|---------------------------|
-------------------------------------|---------------------------|

                                |---3---|
  Q    S   S S  S  S   S  S  S  E   E   E
-------------------------------12--10--12--|
------------------10h-12-10-12-------------|
-------9h-11-9-11--------------------------|
-------------------------------------------|
-------------------------------------------|
-------------------------------------------|

   Q    Q    S  S  S  S  S  S  S  S     S  S  S  S  S  S  S  S  T   S. Q.
--15-----------14-12-10-------------|-----------------------------------------|
------------------------13-12-10----|-----------------------------------------|
---------------------------------12-|--11-12-11-12-11-12-11-------------------|
------------------------------------|-----------------------14-12S-14--L------|
------------------------------------|-----------------------------------------|
------------------------------------|-----------------------------------------|

           ^
  Q        Q.      S  E.   E     E   S  S  S  S     E   Q    E      E
------------------------------|-----12-10------------------------------|
----------12------10-12----L--|-----------12-10-10g12---L--------------|
--4/------12------------------|---------------------------------11g12--|
----------12------------------|----------------------------------------|
------------------------------|----------------------------------------|
------------------------------|----------------------------------------|

   Q    E  E  E.  E.  E     E.  E.  Q.     S S S S
--------------5-------5--|--7---5------------------|
-----------8------8------|----------8------7-8-7---|
---L---------------------|-----------------------9-|
-------------------------|-------------------------|
-------------------------|-------------------------|
-------------------------|-------------------------|

                                            |---3--|  |--3--|  |--3--|
  S  E.  Q    S S S S S S S S    S S S S    E  E   E  E  E  E  E  E  E
------------------------0-----|----------------7------------------------|
--------------------0-3---8-7-|--------7-8g10-----10--8--7--8--7--------|
--7h-9---L------0-2-----------|--9-7-9----------------------------9--7--|
------------------------------|-----------------------------------------|
------------------------------|-----------------------------------------|
------------------------------|-----------------------------------------|

         |----3---|
    Q    E  E     E   E  S  S     Q        Q     E   E   Q    Q
---------7--8--8g10---L--8-10-10g12----|--12----12--11---L---------|
---------------------------------------|---------------------------|
--7g9----------------------------------|---------------------------|
---------------------------------------|---------------------------|
---------------------------------------|---------------------------|
---------------------------------------|---------------------------|

  TP           TP      TP TP TP        TP       TP
  H.           Q       E  E  H         Q        W
--7------------5----|--7--5--7---------9----|--10----------------|
--8------------7----|--8--7--8--------10----|--12----------------|
--------------------|-----------------------|--------------------|
--------------------|-----------------------|--------------------|
--------------------|-----------------------|--------------------|
--------------------|-----------------------|--------------------|

   TP    TP       TP      TP           TP      TP TP TP        TP
   Q     H        Q       H.           Q       E  E  H         Q
--10-----9--------5----|--7------------5----|--7--5--7---------9----|
--10----10--------7----|--8------------7----|--8--7--8--------10----|
-----------------------|--------------------|-----------------------|
-----------------------|--------------------|-----------------------|
-----------------------|--------------------|-----------------------|
-----------------------|--------------------|-----------------------|

   TP    TP
   Q     H.               H         Q     Q        Q    E    E    Q.       E
--10----12------------|--12~-------------------|------------------------------|
--12----10------------|-------------7----10----|--10----8--(10)---------------|
----------------------|-------------7----11----|--11----9---11---11------4g7--|
----------------------|------------------------|-----------------12------5g7--|
----------------------|------------------------|------------------------------|
----------------------|------------------------|------------------------------|

                                                             |-3-|
  E  E  Q    S  S S  S S S S S      Q.     S S S S   S S S S S S S
-------------------------------|-------------0-2-3-2g0-----2-2-3-2-|
---------------------------0-3-|--3g5------3-----------3-0---------|
--4--2--4--------------0-2-----|-----------------------------------|
--5--4--5----------------------|-----------------------------------|
-------------5S-7-5S-7---------|-----------------------------------|
-------------------------------|-----------------------------------|

                                               ^ v ^      ^ v ^      ^ v
  S S   S S S S S S S S S S S S S  S    Q.     S S S   S  S S S   S  S S
--0---5g7-7-5------------------------|---------7-7-7S-(5)-5-5-5S-(3)-3-3-|
----7---------8-7-8-7-5-7-----7-7h-8-|--8------8-8-8S-(7)-7-7-7S-(5)-5-5-|
--------------------------7-9--------|-----------------------------------|
-------------------------------------|-----------------------------------|
-------------------------------------|-----------------------------------|
-------------------------------------|-----------------------------------|

  ^      ^ v      ^ v ^ v
  S   S  S S   S  S S S H
--3S-(5)-5-5S-(7)-7-7-7-7--------|
--5S-(7)-7-7S-(8)-8-8-8-8--------|
---------------------------------|
---------------------------------|
---------------------------------|
---------------------------------|

            |--3--|              |--3--|           |--3--|
      Q     T  T  T  S  S  S  S  T  T  T  S  S  S  T  T  T  S  S
-----------------------------------------------------------------|
--10g12----10-12-10--L----10-12-10-12-10----10-12-10-12-10----10-|
-----------------------12----------------12----------------12----|
-----------------------------------------------------------------|
-----------------------------------------------------------------|
-----------------------------------------------------------------|

                           ^
      |--3--|                     |--3--|           |--3--|
   S  T  T  T  S  S  S  S  S   S  T  T  T  S  S  S  T  T  T  S  S  S
-----------------------10-10h-12-10-12-10----10-12-10-12-10----10-12-|
--12-10-12-10----10-12--------------------12----------------12-------|
--------------12-----------------------------------------------------|
---------------------------------------------------------------------|
---------------------------------------------------------------------|
---------------------------------------------------------------------|

                     |--3--|           |--3--|           |--3--|
   S  S  S  S  S  S  T  T  T  S  S  S  T  T  T  S  S  S  T  T  T  S
--10----10----------------------------------------------------------|
-----12----12-10-12-10-12-10----10-12-10-12-10----10-12-10-12-10----|
-----------------------------12----------------12----------------12-|
--------------------------------------------------------------------|
--------------------------------------------------------------------|
--------------------------------------------------------------------|

               |--3--|
   S  S  S  S  T  T  T  S  S  S  E   S  S     Q
--------10-12-10-12-10----10-12-12--10-------------|
--10-12----------------12--------------12-10g12----|
---------------------------------------------------|
---------------------------------------------------|
---------------------------------------------------|
---------------------------------------------------|

  E   S  S  S  S  S  S  S  S  S  S  S  S  S  S
-----------10-------12--L----10----12-------10-|
-----12-12----12-12-------12----12----12-12----|
-----------------------------------------------|
-----------------------------------------------|
-----------------------------------------------|
-----------------------------------------------|

  E   S  S  S  S S  S  S  S  S  S S  S  S  S
-----10-------12------10-------12------10-12-|
--------12-12------12----12-12------12-------|
---------------------------------------------|
---------------------------------------------|
---------------------------------------------|
---------------------------------------------|

   S  S  S  S  S  S  S  S  S  S  S  S S  S  S  S
--------10-------12-------10-------12------10----|
--12-12----12-12----12-12----12-12------12----12-|
-------------------------------------------------|
-------------------------------------------------|
-------------------------------------------------|
-------------------------------------------------|

   S  S  S  S  S  S  S  S  S  S  S  S  S  S  S   S
--------10-------12-------10-------12-------10S-12-|
--12-12----12-12----12-12----12-12----12-12--------|
---------------------------------------------------|
---------------------------------------------------|
---------------------------------------------------|
---------------------------------------------------|

                        >             >             >
   S   S    S   S   S   S    S    S   S    S    S   S    S    S   S   S
--12-(10)-(10)-12-(10)-12p-(10)-(10)-12p-(10)-(10)-12p-(10)-(10)-12-(10)-|
-------------------------------------------------------------------------|
-------------------------------------------------------------------------|
-------------------------------------------------------------------------|
-------------------------------------------------------------------------|
-------------------------------------------------------------------------|

    Slowly Fade Out
                   >            >             ^
    S              S   S    S   S   S   S  S  S   S  S  S  S  S  S  S
--(10)------------12-(10)-(10)-12-(10)----10-10S-12-10----10----------|
---------------------------------------12--------------12----12-10-12-|
----------------------------------------------------------------------|
----------------------------------------------------------------------|
----------------------------------------------------------------------|
----------------------------------------------------------------------|

   |--3--|           |--3--|           |--3--|                 |--3--|
   T  T  T  S  S  S  T  T  T  S  S  S  T  T  T  S  S  S  S  S  T  T  T  S
--------------------------------------------------------10-12-10-12-10----|
--10-12-10----10-12-10-12-10----10-12-10-12-10----10-12----------------12-|
-----------12----------------12----------------12-------------------------|
--------------------------------------------------------------------------|
--------------------------------------------------------------------------|
--------------------------------------------------------------------------|

               |--3--|                 |--3--|
   S  S  S  S  T  T  T  S  S  S  S  S  T  T  T  S  S  S  S  S
--10----------------------------10-12-10-12-10----10----------|
-----12-10-12-10-12-10----10-12----------------12----12-10-12-|
-----------------------12-------------------------------------|
--------------------------------------------------------------|
--------------------------------------------------------------|
--------------------------------------------------------------|

   |--3--|                 |--3--|                 |--3--|
   T  T  T  S  S  S  S  S  T  T  T  S  S  S  S  S  T  T  T  S  S  S
--------------------10-12-10-12-10----10----------------------------|
--10-12-10----10-12----------------12----12-10-12-10-12-10----10-12-|
-----------12----------------------------------------------12-------|
--------------------------------------------------------------------|
--------------------------------------------------------------------|
--------------------------------------------------------------------|

   |--3--|                 |--3--|           |--3--|
   T  T  T  S  S  S  S  S  T  T  T  S  S  S  T  T  T  S  S  S  S  S
--10-12-10----10----------------------------------------------10-12-|
-----------12----12-10-12-10-12-10----10-12-10-12-10----10-12-------|
-----------------------------------12----------------12-------------|
--------------------------------------------------------------------|
--------------------------------------------------------------------|
--------------------------------------------------------------------|

   |--3--|           |--3--|           |--3--|           |--3--|
   T  T  T  S  S  S  T  T  T  S  S  S  T  T  T  S  S  S  T  T  T  S  S  S
--10-12-10----10-12-10-12-10----10-12-10-12-10----10-12-10-12-10----10----|
-----------12----------------12----------------12----------------12----12-|
--------------------------------------------------------------------------|
--------------------------------------------------------------------------|
--------------------------------------------------------------------------|
--------------------------------------------------------------------------|

         |--3--|                             |--3--|
   S  S  T  T  T  S  S  S  S  S  S  S  S  S  T  T  T  S  S  S
--------------------------------------------------------------||
--10-12-10-12-10----10----10----10----10-12-10-12-10----10-12-||
-----------------12----12----12----12----------------12-------||
--------------------------------------------------------------||
--------------------------------------------------------------||
--------------------------------------------------------------||

Duration Legend
---------------
W - whole
H - half
Q - quarter
E - 8th
S - 16th
T - 32nd
X - 64th
. - note dotted
|-n-|  - n-tuplets





Mewt (Acoustic Guitar Version)
~ White Melodies of Final Fantasy Tactics Advance
Composed by:
Hitoshi Sakimoto, Nobuo Uematsu, Kaori Ohkoshi, Ayako Saso
Arranged by:
Yo Yamazaki, Akira Sasaki, Satoshi Henmi
Tabbed by: Justin Lincoln

Guitar 2

     E  E  E  E  E  E  E  E     E  E  E  E  E  E  E  E
E||--------------0-----------|--------------0-----------|
B||--------0--------0--------|--------0--------0--------|
G||-----------0--------0-----|-----------0--------0-----|
D||-----2-----------------2--|-----2-----------------2--|
A||--3-----------------------|--3-----------------------|
E||--------------------------|--------------------------|

  E  E  E  E  E  E  E  E     E  E  E  E  E  E  E  E
--------------0-----------|--------------0-----------|
--------3--------3--------|--------3--------3--------|
-----------0--------0-----|-----0-----0--------0-----|
-----4-----------------4--|--0--------------------0--|
--------------------------|--------------------------|
--0-----------------------|--------------------------|

  E  E  E  E  E  E  E  E     E  E  E  E  E  E  E  E
--------------0-----------|--------------0-----------|
--------0--------0--------|--------3--------3--------|
-----------0--------0-----|-----0-----0--------0-----|
-----2-----------------2--|--0--------------------0--|
--3-----------------------|--------------------------|
--------------------------|--------------------------|

                                      >
  E  E  E  E  E  E  E  E     E  E  E  E  H           E  E  E  E  E  E  E  E
--------------0-----------|-----------0-----------|--------------0------------|
--------0--------0--------|--------------0--------|--------0--------0---------|
-----------0--------0-----|--------2--------------|-----------0--------0------|
-----2-----------------2--|-----1-----------------|-----2---------------------|
--3-----------------------|--2--------------------|--3--------------------3S--|
--------------------------|-----------------------|---------------------------|

  E  E  E  E  E  E  E  E     E  E  E  E  E  E  E  E
--------------0-----------|--------------0-----------|
--------3--------3--------|--------3--------3--------|
-----------0--------0-----|-----------0--------0-----|
-----4-----------------4--|-----4-----------------4--|
--5-----------------------|--------------------------|
--------------------------|--0-----------------------|

  E  E  E  E  E  E  E  E     E  E  E  E  E  E  E  E
--------------0-----------|--------------0------------|
--------3--------3--------|--------0--------0---------|
-----------0--------0-----|-----------0--------0------|
-----4-----------------4--|-----2---------------------|
--5-----------------------|--3--------------------3S--|
--------------------------|---------------------------|

                                                                 >
  E  E  E  E  E  E  E  E     E  E  E  E  E  E  E  E     E  E  E  E  H
--------------0-----------|--------------0-----------|-----------0-----------|
--------3--------3--------|--------0--------0--------|--------------0--------|
-----------0--------0-----|-----------0--------0-----|--------2--------------|
-----4-----------------4--|-----2-----------------2--|-----1-----------------|
--5-----------------------|--3-----------------------|--2--------------------|
--------------------------|--------------------------|-----------------------|

  E  E  E  E  E  E  E  E     E  E  E  E  E  E  E  E
--------------------0-----|-----0--------2-----------|
-----0--------3--------3--|--------0--------0--------|
--------0--------0--------|-----------2--------2-----|
-----------0--------------|-----------------------2--|
--------------------------|--0-----------------------|
--3-----------------------|--------------------------|

  E  E  E  E  E  E  E  E     E  E  E  E  E  E  E  E
--------------0-----------|-----------------0--------|
--------3--------3-----3--|--------3-----------3-----|
-----2-----2--------2-----|-----2-----2-----------2--|
--------------------------|--0-----------------------|
--2-----------------------|--------------------------|
--------------------------|--------------2-----------|

  E  E  E  E  E  E  E  E     E  E  E  E  E  E  E  E
--------------------0-----|-----0--------2-----------|
-----0--------3--------3--|--------0--------0--------|
--------0--------0--------|-----------2--------2-----|
-----------0--------------|-----------------------2--|
--------------------------|--0-----------------------|
--3-----------------------|--------------------------|

  E  E  E  E  S  S E  E  E     E  E  E  E  E  E  E  E
--------------0h-2----------|--------------0-----------|
--------3----------3--------|--------3--------3--------|
-----2-----2----------2-----|-----2-----2--------2-----|
--0----------------------0--|-----------------------0--|
----------------------------|--------------------------|
----------------------------|--2-----------------------|

  E  E  E  E  E  E  E  E     E  E  E  E  E  E  Q       E  E  E  Q.     Q
--------------------0-----|--------------0----------|-----0-----3-----------|
--------0-----3--------3--|--------3--------3-------|--------0--------------|
-----------------0--------|-----------0--------0----|-----------------------|
-----0-----0--------------|-----0-------------------|-----------------------|
--------------------------|-------------------------|-----------------------|
--3-----------------------|--3----------------------|--0--------------------|

  E  E  E  Q.     Q       E  E  E  Q.     Q       E  E  E  Q.     Q
-----0-----3-----------|-----0-----3-----------|-----0-----2-----------|
--------0--------------|--------0--------------|--------0--------------|
-----------------------|-----------------------|-----------------------|
-----------------------|-----------------------|-----------------------|
-----------------------|--3--------------------|--2--------------------|
--3--------------------|-----------------------|-----------------------|

  E  E  E  Q.     Q       E  E  E  Q.     Q       E  E  E  Q.     Q
-----0-----3-----------|-----0-----3-----------|-----0-----3-----------|
--------0--------------|--------0--------------|--------0--------------|
-----------------------|-----------------------|-----------------------|
-----------------------|-----------------------|-----------------------|
-----------------------|-----------------------|--3--------------------|
--0--------------------|--3--------------------|-----------------------|

  E  E  E  Q.     Q       E  E  E  E  E  E  E  E     E  E  E  E  E  E  E  E
-----0-----2-----------|--------------0-----------|--------------0-----------|
--------0--------------|--------0--------0--------|--------0--------0--------|
-----------------------|-----------0--------0-----|-----------0--------0-----|
-----------------------|-----2-----------------2--|-----2-----------------2--|
--2--------------------|--3-----------------------|--3-----------------------|
-----------------------|--------------------------|--------------------------|

  E  E  E  E  E  E  E  E     E  E  E  E  E  E  E  E
--------------0-----------|--------------0-----------|
--------3--------3--------|--------3--------3--------|
-----------0--------0-----|-----------0--------0-----|
-----4-----------------4--|-----4-----------------4--|
--------------------------|--5-----------------------|
--0-----------------------|--------------------------|

  E  E  E  E  E  E  E  E      E  E  E  E  E  E  E  E
--------------0------------|--------------0-----------|
--------0--------0---------|--------3--------3--------|
-----------0--------0------|-----------0--------0-----|
-----2---------------------|-----4-----------------4--|
--3--------------------3S--|--5-----------------------|
---------------------------|--------------------------|

                                      >
  E  E  E  E  E  E  E  E     E  E  E  E  H           E  E  E  E  E  E  E  E
--------------0-----------|-----------0-----------|--------------0------------|
--------0--------0--------|--------------0--------|--------0--------0---------|
-----------0--------0-----|--------2--------------|-----------0--------0------|
-----2-----------------2--|-----1-----------------|-----2---------------------|
--3-----------------------|--2--------------------|--3--------------------3S--|
--------------------------|-----------------------|---------------------------|

  E  E  E  E  E  E  E  E     E  E  E  E  E  E  E  E
--------------0-----------|--------------0-----------|
--------3--------3--------|--------3--------3--------|
-----------0--------0-----|-----------0--------0-----|
-----4-----------------4--|-----4-----------------4--|
--5-----------------------|--------------------------|
--------------------------|--0-----------------------|

  E  E  E  E  E  E  E  E     E  E  E  E  E  E  E  E
--------------0-----------|--------------0------------|
--------3--------3--------|--------0--------0---------|
-----------0--------0-----|-----------0--------0------|
-----4-----------------4--|-----2---------------------|
--5-----------------------|--3--------------------3S--|
--------------------------|---------------------------|

                                                                 >
  E  E  E  E  E  E  E  E     E  E  E  E  E  E  E  E     E  E  E  E  H
--------------0-----------|--------------0-----------|-----------0-----------|
--------3--------3--------|--------0--------0--------|--------------0--------|
-----------0--------0-----|-----------0--------0-----|--------2--------------|
-----4-----------------4--|-----2-----------------2--|-----1-----------------|
--5-----------------------|--3-----------------------|--2--------------------|
--------------------------|--------------------------|-----------------------|

  E  E  E  E  E  E  E  E     E  E  E  E  E  E  E  E
--------------------0-----|-----0--------2-----------|
-----0--------3--------3--|--------0--------0--------|
--------0--------0--------|-----------2--------2-----|
-----------0--------------|-----------------------2--|
--------------------------|--0-----------------------|
--3-----------------------|--------------------------|

  E  E  E  E  E  E  E  E     E  E  E  E  E  E  E  E
--------------0-----------|-----------------0--------|
--------3--------3-----3--|--------3-----------3-----|
-----2-----2--------2-----|-----2-----2-----------2--|
--------------------------|--0-----------------------|
--2-----------------------|--------------------------|
--------------------------|--------------2-----------|

  E  E  E  E  E  E  E  E     E  E  E  E  E  E  E  E
--------------------0-----|-----0--------2-----------|
-----0--------3--------3--|--------0--------0--------|
--------0--------0--------|-----------2--------2-----|
-----------0--------------|-----------------------2--|
--------------------------|--0-----------------------|
--3-----------------------|--------------------------|

  E  E  E  E  S  S E  E  E     E  E  E  E  E  E  E  E
--------------0h-2----------|--------------0-----------|
--------3----------3--------|--------3--------3--------|
-----2-----2----------2-----|-----2-----2--------2-----|
--0----------------------0--|-----------------------0--|
----------------------------|--------------------------|
----------------------------|--2-----------------------|

  E  E  E  E  E  E  E  E     E  E  E  E  E  E  E  E
--------------------0-----|--------------0-----------|
--------0-----3--------3--|--------3--------3-----3--|
-----------------0--------|-----------0--------0-----|
-----0-----0--------------|-----0--------------------|
--------------------------|--------------------------|
--3-----------------------|--3-----------------------|

  E  E  E  E  E  E  E  E     E  E  E  E  E  E  E  E
--------------0-----------|--------------0-----------|
--------0--------0-----0--|--------0--------0-----0--|
-----0-----0--------0-----|-----0-----0--------0-----|
--------------------------|--------------------------|
--3-----------------------|--3-----------------------|
--------------------------|--------------------------|

  E  E  E  E  E  E  E  E     E  E  E  E  E  E  E  E
--------------0-----------|--------------0-----------|
--------3--------3-----3--|--------3--------3-----3--|
-----0-----0--------0-----|-----0-----0--------0-----|
--------------------------|--------------------------|
--------------------------|--------------------------|
--3-----------------------|--3-----------------------|

  E  E  E  E  E  E  E  E     E  E  E  E  E  E  E  E
--------------0-----------|--------------0-----------|
--------0--------0-----0--|--------0--------0-----0--|
-----0-----0--------0-----|-----0-----0--------0-----|
--------------------------|--------------------------|
--3-----------------------|--3-----------------------|
--------------------------|--------------------------|

  E  E  E  E  E  E  E  E     E  E  E  E  E  E  E  E
--------------0-----------|--------------0-----------|
--------3--------3-----3--|--------3--------3-----3--|
-----0-----0--------0-----|-----0-----0--------0-----|
--------------------------|--------------------------|
--------------------------|--------------------------|
--3-----------------------|--3-----------------------|

  E  E  E  E  E  E  E  E     E  E  E  E  E  E  E  E
--------------0-----------|--------------0-----------|
--------0--------0-----0--|--------0--------0-----0--|
-----0-----0--------0-----|-----0-----0--------0-----|
--------------------------|--------------------------|
--3-----------------------|--3-----------------------|
--------------------------|--------------------------|

  E  E  E  E  E  E  E  E     E  E  E  E  E  E  E  E
--------------0-----------|--------------0-----------|
--------3--------3-----3--|--------3--------3-----3--|
-----0-----0--------0-----|-----0-----0--------0-----|
--------------------------|--------------------------|
--------------------------|--------------------------|
--3-----------------------|--3-----------------------|

                             Slowly Fade Out
  E  E  E  E  E  E  E  E     E               E  E  E  E  E  E  E
--------------0-----------|---------------------------0-----------|
--------0--------0-----0--|---------------------0--------0-----0--|
-----0-----0--------0-----|------------------0-----0--------0-----|
--------------------------|---------------------------------------|
--3-----------------------|--3------------------------------------|
--------------------------|---------------------------------------|

  E  E  E  E  E  E  E  E     E  E  E  E  E  E  E  E
--------------0-----------|--------------0-----------|
--------3--------3-----3--|--------3--------3-----3--|
-----0-----0--------0-----|-----0-----0--------0-----|
--------------------------|--------------------------|
--------------------------|--------------------------|
--3-----------------------|--3-----------------------|

  E  E  E  E  E  E  E  E     E  E  E  E  E  E  E  E
--------------0-----------|--------------0-----------|
--------0--------0-----0--|--------0--------0-----0--|
-----0-----0--------0-----|-----0-----0--------0-----|
--------------------------|--------------------------|
--3-----------------------|--3-----------------------|
--------------------------|--------------------------|

  E  E  E  E  E  E  E  E     E  E  E  E  E  E  E  E
--------------0-----------|--------------0-----------||
--------3--------3-----3--|--------3--------3-----3--||
-----0-----0--------0-----|-----0-----0--------0-----||
--------------------------|--------------------------||
--------------------------|--------------------------||
--3-----------------------|--3-----------------------||

Duration Legend
---------------
W - whole
H - half
Q - quarter
E - 8th
S - 16th
T - 32nd
X - 64th
. - note dotted
|-n-|  - n-tuplets
Login or Register to remove this ad.

15 comments on Mewt

I really love it!!! But I've

I really love it!!!
But I've never heard it in the game?

yea this one sounds wicked

yea this one sounds wicked awesome. i particularly love the last minute of this piece but too bad i can't play 2 guitars at the same time.. or can i? no, no i can't, hehe, but i wish i could.

WOW. I just listened to this

WOW. I just listened to this song in full, and it's amazing. Awesome job. Where can I get the MP3?

here is the full album,

here is the full album, sorry I don't have just the mp3

http://www.megaupload.com/?d=43U34RZ4

Haha I can't complain man,

Haha I can't complain man, even better :)

Aeter, I played the european

Aeter, I played the european version, and IT ISNT IN THE GAME! maybe its in the japanese one

This one isn't in the game,

This one isn't in the game, or not like this. This one is from a arrange album call "The White Melodies of Final Fantasy Tactics Advance".

... does any1 know where to

5

... does any1 know where to get the mp3 the link dosnt work.. Thanks

Oh my god.

5

Oh my god.

I uploaded the mp3 on this

I uploaded the mp3 on this page so people can hear the original. The midi really doesn't do it justice. Take a listen!

I listened to this song once

5

I listened to this song once and I love it now I can't get enough of it. I've almost learned it all Great tab!!!

absolutley beautiful. i'd

absolutley beautiful.
i'd heard the song before i played guitar, and always wanted to learn it...now I can! thank you!

Re: Mewt

5

What does g mean?
Its not slide, bend, or hammer on is it?

It means grace note. If you

It means grace note. If you look on the actual sheet music rather than the tab it will clear it up. Grace notes can be slides, hammer ons, etc. so you'll have to listen carefully to the recording to find out exactly how it's played, but for the most part they are slides.

It just made it much easier to read the sheet music than having slides written all over the place.

this is pure genius! -

this is pure genius!
- stopzilla review