Ads

Brothers (Fullmetal Alchemist) Guitar Tab

Submitted: Jan 02, 2013 by diralark

5
Average: 5 (8 votes)
Download | Listen
Game: Fullmetal Alchemist
Composer(s): Michiru Oshima
Style: Arrangement, Fingerstyle

AutoScroll: Slow | Medium | Fast
                       Brothers    -    from "Fullmetal Alchemist"

Music by piano arr. by Sebastian Wolff  >>  guitar arr. by Diralark

-(^_^)- Happy new year people of gametabs -(^_^)-

Guitar, Dropped D Tuning, Let ring, Tempo 118

     ^                  ^                  ^                 ^                                       
     E  E  Q    Q       E  E  Q    Q       E  E  H           E  E  E  E  Q       E  E   E  E  E  E   
E||--1-----0----1----|--0---------------|-----------------|-------------------|---------------------|
B||--3---------------|--1-----3----1----|-----------------|--------------1----|---------------------|
G||--2--2------------|--0--0------------|--2--------------|--2-----0----------|--2------------------|
D||------------------|------------------|--3-----0--------|--3--------2-------|--3------------0--3--|
A||------------------|--3---------------|-----0-----------|-----3-------------|------------0--------|
D||--0---------------|------------------|--0--------------|--0----------------|--0--2h--3-----------|


                                                                     Segno
                                   III (3)                                                
  E  E   E  E  E  E     E   E  E   E       E  E     Q    Q    Q         E  E  Q    E  E   
---------------------|---------------------------|-----------------||---------1----0--1--|
--1------------------|------------------------3--|-----------------||---3----------------|
---------------------|--3------------------3-----|--2--------------||*--------2----------|
--2---------------2--|--0------0h--3-------------|-------2---------||*-----3-------------|
--3------------3-----|--1h--3--------------------|--4---------4----||--------------------|
-----0h--2--5--------|---------------------------|-----------------||---0----------------|


                     ^                                                                          
  E  E  Q    Q       E  E  Q    Q       E  E  H           E  E  Q    E   E     E  E  Q    Q     
--3----------5----|--1----------0----|-----------------|--------1----0h--1--|--3----------8----|
------------------|--3---------------|--3--------------|--3-----------------|------------------|
--------0---------|--------2----0----|--------2--------|--------2-----------|--------0---------|
-----2------------|-----3------------|-----3-----------|-----3--------------|-----2------------|
--3---------------|------------------|-----------------|--------------------|--3---------------|
------------------|--0---------------|--0--------------|--0-----------------|------------------|


                                                                                    ^                
  E  E  E   E  Q       E  E  E  E   E  E     E  E  Q    E  E     E  E  Q    Q       E  E  Q    Q     
--5------------3----|--5---------------0--|--------1----0--1--|--3----------5----|--1----------0----|
--------------------|-----------0h--2-----|--3----------------|------------------|--3---------------|
--------------------|--------2------------|--------2----------|--------0---------|--------2----0----|
--------3h--5-------|-----2---------------|-----3-------------|-----2------------|-----3------------|
-----3--------------|--0------------------|-------------------|--3---------------|------------------|
--3-----------------|---------------------|--0----------------|------------------|--0---------------|


                                                                                            Da Segno
                                          II                                                          
  E  E  Q    Q       E  E  E  E   Q       E  E  E  E   Q       E  E  Q    Q       E  E  E  E   E  E   
------------------|--------------------|--0--------1p--0----|------------------|---------------------|
--3----------3----|--1--------1h--3----|--------------------|--3----------3----|--3------------------|
--------2---------|--------0-----------|--------0-----------|--------2---------|------------------2--|
-----3------------|-----2--------------|-----2--------------|-----3------------|--------0--2h--3-----|
------------------|--3-----------------|--3-----------------|------------------|-----0---------------|
--0---------------|--------------------|--------------------|--0---------------|--0------------------|


  III                                        III                                     
                        ^                                          ^                 
  E   E  E  E  E  E     E  E  E  E  E  E     E   E  E  E  E  E     E  E  E  E  Q     
--5---------3--5-----|--3-----------------|--5------------8-----|--3----------------|
---------------------|--0-----------3-----|---------------------|--3----------------|
---------------------|--------0-----0-----|------------------5--|--------0-----0----|
---------3-----------|-----0-----0-----0--|---------3-----------|-----0-----0-------|
------3-----3-----3--|--------------------|------3-----3--------|-------------------|
--3------------------|--5-----------------|--3------------------|--5----------------|


  III                                              III (3)                                
                        ^                                                                 
  E   E  E  E  E  E     E  E  E  E  E  E     E  E  E       E  E  E     E  E  E  E  E  E   
--5---------3--5-----|--3--------------0--|--1----------------3-----|--0-----------------|
---------------------|--0-----------3-----|----------------3--------|--2-----------------|
---------------------|--------0-----------|----------------3-----3--|-----2--------------|
---------3-----------|-----0-----0--------|-----0--3----------------|--------2-----------|
------3-----3-----3--|--------------------|--1----------------------|-----------4--0-----|
--3------------------|--5-----------------|-------------------------|-----------------2--|


  III                                        III                                      
                        ^                                                             
  E   E  E  E  E  E     E  E  E  E  E  E     E   E  E  E  E  E     E  E  E  E  E  E   
--5---------3--5-----|--3-----------------|--5------------8-----|--3-----------3-----|
---------------------|--0-----------3-----|---------------------|--3-----0-----------|
---------------------|--------0-----0-----|------------------5--|--------0-----0-----|
---------3-----------|-----0-----0-----0--|---------3-----------|-----0-----0-----0--|
------3-----3-----3--|--------------------|------3-----3--------|--------------------|
--3------------------|--5-----------------|--3------------------|--5-----------------|


  III                                        V                     V                   
                                             ^                     ^                   
  E   E  E  E  E  E     E  E  E  E  E  E     E  E  E  E  E   E     E  E  E   E  E  E   
--5---------3--5-----|--7-----------------|--5------------------|--5------------5-----|
---------------------|--------------8-----|--5------------------|--5------------------|
---------------------|--7-----------------|-----6---------------|-----6------------6--|
---------3-----------|-----0-----0-----0--|-----------7--8p--5--|--------8p--5--------|
------3-----3-----3--|--------------------|--0-----7------------|--7------------7-----|
--3------------------|--5-----5-----5-----|---------------------|---------------------|


                                            ^                                         ^                  
  E  E  E  E  E  E     E  E  E  E  E  E     E  E  E  E  E  E     E  E  E  E  E  E     E  E  E  E  E  E   
--------------------|--------------------|--------1-----3-----|--5-----------------|--------------0-----|
--3-----------3-----|--1-----------------|--------------------|--------------1-----|--3--------------3--|
-----2-----2--------|-----0-----0-----0--|--2-----------0-----|--------2-----------|--3-----------------|
--------0--------0--|--2-----------------|--3-----3-----------|--------------------|--------0-----------|
--------------------|--3-----3-----1-----|--3--3-----3-----3--|--0--3-----3-----3--|--1-----------------|
--3--------3--------|--------------------|--------------------|--------------------|-----3-----3--------|


                                III          --                                                        
  ^                                                                                   ^                
  E  E  E  E  E  E     E  E  E  E   E  E     E  E  E  E  E  E     E  E  Q    E  E     E  E  Q    Q     
--------------------|--------5------3-----|--------------5-----|--3----------5--3--|--1----------0----|
--1-----------------|---------------------|--6-----------------|-------------------|--3---------------|
--------0-----3-----|--2------------------|--------------------|--------0----------|--------2---------|
--2-----------------|---------------------|--------------3-----|-----0-------------|-----2------------|
--3--3-----3-----3--|-----3-----3------3--|-----3-----3-----3--|-------------------|--0---------------|
--------------------|--3------------------|--3-----3-----------|--5----------------|------------------|


        III (3)                                  III (3)                  A ~                
                                                 ^                        ^                  
  E  E  E       E  E  E     E  E  E  E  E  E     E       E  Q    E  E     E   E  E  E  Q     
-------------------------|--------------5-----|--3---------------5--3--|--1------------0----|
--3----------------3-----|--3-----------------|--3---------------------|--2---------2-------|
----------------3-----3--|--2--0--------------|-------------3----------|---------2----------|
-----0--3----------------|--------3--2--------|----------3-------------|------2-------------|
--1----------------------|-----------------3--|--1---------------------|--0-----------------|
-------------------------|--------------------|------------------------|--------------------|


                                           1._____________        V           -]     
                                             ^                    ^                  
  E  E  E  E   E  E     E  E  E  E  E  E     E  E  E  E  E  E     E  E  E  E  E  E   
---------------------|--------------------|--5-----------------|--7--------5--------|
--3------------------|--3-----------------|--6-----------------|--------------8-----|
------------------2--|-----2--------------|--7-----------------|--7-----------------|
--------0--2h--3-----|--------3--0--------|--0-----0-----0-----|-----------------0--|
-----0---------------|--------------0-----|-----0-----0-----0--|-----5-----5--------|
--0------------------|-----------------3--|--------------------|--5-----5-----------|


                                                                 V           -]                          
  ^                    ^                    ^                    ^                    ^                  
  E  E  E  E  E  E     E  E  E  E  E  E     E  E  E  E  E  E     E  E  E  E  E  E     E  E  E  E  E  E   
--1-----3-----5-----|--0-----0-----------|--------5-----------|--7--------5--------|--5-----------------|
--------------------|--1--------1--------|--3-----------------|--------------8-----|--6-----------------|
--------------------|-----0--------0-----|--------------------|--7-----------------|--------------------|
--0-----0-----0-----|-----------------2--|--3--------0-----0--|-----------------0--|--0--------0--------|
-----0-----0-----0--|--3-----3-----------|-----0--------0-----|-----5--------------|-----0--------0-----|
--------------------|--------------------|--0-----------------|--5-----5-----5-----|--------3--------3--|


  ^                    ^                    ^                                                            
  E  E  E  E  E  E     E  E  E  E  E  E     E  E  E  E  E  E     E  E  E  E  E  E     E  E  E  E  E  E   
--5-----------------|--1-----0-----1-----|--0-----------------|--------------------|--------------0-----|
--6-----------------|--3-----------------|--1-----------1-----|--------------------|--------3-----------|
--------------------|--2-----------------|-----0-----------0--|--2-----------------|--2--------------0--|
--0--------0--------|--------0-----0-----|-----------0--------|-----3-----0--------|-----3-----0--------|
-----0--------0-----|-----0-----0-----0--|--3-----3-----------|--------0--------0--|--------------0-----|
--------3--------3--|--0-----------------|--------------------|--0-----------3-----|--3-----------------|


  ^                    ^                   ^                                           ^                
  E  E  E  E  E  E     E  E  E  E  Q       E  E  E  E  E  E     E  E   E  E  E   E     E  E  Q    Q     
--1-----0-----1-----|--3-----------0----|--------------------|----------------------|--1-----0----1----|
--3-----------------|--1----------------|--3-----------------|--3-------------------|--3---------------|
--2-----------------|--------0----------|--2-----------------|--2-------------------|--2---------------|
--------0-----0-----|-----2--------2----|-----2--------0-----|-----2p--0------------|--------0---------|
-----0-----0-----0--|--3--------3-------|-----------0-----0--|------------0---------|-----0------------|
--0-----------------|-------------------|--3-----3-----------|--3------------3p--2--|--0---------------|


                                        X                      VII                  
  ^                                                            ^                    
  E  E  Q    Q       E  E  H            E   E   Q     Q        E  E   E  E  E   E   
--0---------------|-----------------|----------------------|-----------------------|
--1-----3----1----|-----------------|--10------------13----|--10-------------------|
--0--0------------|--2--------------|----------12----------|--10------------7--10--|
------------------|--3-----0--------|----------10----------|---0---------7---------|
--3---------------|-----0-----------|------10--------------|------7h--8------------|
------------------|--0--------------|--10------------------|-----------------------|


                                                                    2.____________
  V                     III                    II           -]          III (3)             
  ^                     ^                      ^                        ^                   
  E  E   E  E  E  E     E   E   E  E  E  E     E  E   E  E  E  E        E      E  H         
--8------------------|--6-------------------|--5---------------0---||--10------------------|
--5---------------5--|--3----------------3--|--2------------2------||--10------------------|
--5------------5-----|--3-------------3-----|--2------------2-----*||--10------------------|
------------5--------|-------------3--------|------------2--------*||-------------0--------|
-----5h--7-----------|------3h--5-----------|-----2h--4------------||----------0-----------|
---------------------|----------------------|----------------------||----------------------|


   III (3) + III (2)                      III (3) + III (1)                                 
                                          ^                                                 
   E                  E     H             E                E   Q    Q       Q    Q    Q     
--10----------------------------------|--10------------------------------|--1----0---------|
--10----------------------------------|--10-------------------10----8----|------------1----|
--10----------------------------------|----------------------------------|--2--------------|
--------------------------(10)--------|----------------------------------|-----------------|
--------------------(10)--------------|--------------------8-------------|--0--------------|
--------------------------------------|---8--------------------8---------|-----------------|


                    ^                                    ^                  ^               
  E  E  H           E  E  H           E  E  Q    Q       E  E  Q    Q       E  E  H         
-----------------|-----------------|--------5----3----|--1-----0---------|-----------------|
-----------------|-----------------|------------------|-------------1----|--3--------------|
--2--------------|--2--------------|--2---------------|--2---------------|--0--------------|
--0-----0--------|--3--------------|--3--3------------|--3--2------------|-----0-----------|
-----0-----------|--3-----3--------|--1---------------|--0---------------|-----------------|
--3--------------|-----5-----------|------------------|------------------|--5-----5--------|


                                          VII          rall............T:90
                     ^                                     ^                    ^             
  E  E  Q    Q       E  E  H           E  E   H            E  E  E  E  Q        H.            
-------------3----|--0--------------|--8---------------|--10----------------|--10------------|
--3---------------|--1--------------|------------------|--10----------------|--10------------|
--0---------------|--2--------------|--9---------------|--------------------|----------------|
-----0------------|-----2-----------|---------7--------|---0-----0--L--0----|---0------------|
------------------|--0-----0--------|-----7------------|------0--------0----|----------------|
--5-----5---------|-----------------|--7---------------|---0----------------|----------------|


  H.             
--L------------||
--L------------||
---------------||
--L------------||
---------------||
--L------------||

Legend
---------------
W - whole
H - half
Q - quarter
E - 8th
. - note dotted
L - tied note
h - hammer on
p - pull off
^ - brush up

Note : 
I built this guitar arrangement simply using the Sebastian Wolff piano  
arrangment : http://sebastianwolff.info/news/2006/10/fullmetal-
alchemist-brothers/
Login or Register to remove this ad.

6 comments on Brothers

Awesomeness

5

Awesomeness

Thank you

Thank you

Perfect

5

TotalLy perfect thank's! if you can upload a video it will be great!

Perfect ! Great Job !

Perfect ! Great Job !

I'm happy u love it guys,

I'm happy u love it guys, especially since I spent a lot of time on this tune : the arrangement (Piano -> Guitar) wasn't a piece of cake :-P

Oh my god, this is amazing! I

5

Oh my god, this is amazing! I expected nothing less from you, diralark!