Stepping Along (Fullmetal Alchemist: Brotherhood) Guitar Tab

Submitted: Jul 14, 2018 by JordanVS

5
Average: 5 (6 votes)
Download | Listen
Game: Fullmetal Alchemist: Brotherhood
Composer(s): Akira Senju
Style: Arrangement, Fingerstyle

AutoScroll: Slow | Medium | Fast
Stepping Along                                               
Fullmetal Alchemist: Brotherhood
Akira Senju
JordanVS

Tempo : 68 ~ 4/4

      S S S S S S S S S S S S S S S S    S S S S S S S S S S S S S S S S  
E||---0---0---------------------------|--------------------------3-------|
B||---1---1---3---1---3---3---1---0---|--1---1---0---1---3---1---1---1---|
G||*--2---2---2---2---0---0---0---0---|--2---2---2---2---0---0-------0---|
D||*--3-3---3---3---3-2-2---2---2---2-|--0-0---0---0---0-2-2---2---2---2-|
A||-----------------------------------|----------------------------------|
E||-----------------------------------|----------------------------------|


  S S S S S S S S S S S S S S S S    S S S S S S S S S S S S S S S S    
--0---0---------------------------|------------------------------3----||
--1---1---3---1---3---3---1---0---|--1---1---0---1---3---5---6---3----||
--2---2---2---2---0---0---0---0---|--2---2---2---2---4---4---4-------*||
--3-3---3---3---3-2-2---2---2---2-|--0-0---0---0---0-5-5---5---5---5-*||
----------------------------------|-----------------------------------||
----------------------------------|-----------------------------------||


   S S S S S S S S S S S S S S S S    S S S S S S S S S S S S S S S S  
---4---4---------------------------|--------------------------7-------|
---5---5---7---5---7---7---5---4---|--5---5---4---5---7---5---5---5---|
*--6---6---6---6---4---4---4---4---|--2---2---2---2---4---4-------4---|
*------------------6-----------L---|--4-----------L---6---L-----------|
---0-0---0---0---0-----------------|----------------------------------|
-------------------4-4---4---4---4-|--2-2---2---2---2-4-4---4---4---4-|


  S S S S S S S S S S S S S S S S    S S S S S S S S S S S S  S S S S       S S  S S  S S S S  
--4---4---------------------------|-------------------------------7----||-----------------8---|
--5---5---7---5---7---7---5---4---|--5---5---4---5---7---9---10---7----||---8---10---11---8---|
--6---6---6---6---4---4---4---4---|--2---2---2---2---8---8----8---8---*||---9----9----9---9---|
------------------6-----------L---|--4-----------L---9----------------*||--10-----------------|
--0-0---0---0---0-----------------|------------------------------------||---------------------|
------------------4-4---4---4---4-|--2-2---2---2---2-7-7---7----7---7--||---8-8----8----8---8-|


    S S S S S S S S S S S S S S S S    S S S S S S S S S S S S S S S S  
|---0---0---------------------------|--------------------------3-------|
|---1---1---3---1---3---3---1---0---|--1---1---0---1---3---1---1---1---|
|*--2---2---2---2---4---4---0---0---|--2---2---2---2---0---0-------0---|
|*------------------5---5-----------|--3---3-----------2---2-----------|
|-----------------------------------|--5-5---5---5---5-----------------|
|---1-1---1---1---1-0-0---0---0---0-|------------------0-0---0---0---0-|


  S S S S S S S S S S S S S S S S    S S S S S S S S S S S S S S S S      S S S E  E  S E  E  E  E    
--0---0---------------------------|------------------------------3----||--4-4-4-4--4--4-4-----------||
--1---1---3---1---3---3---1---0---|--1---1---0---1---3---5---6---3----||--5-5-5-5--5--5-5-----------||
--2---2---2---2---4---4---0---0---|--2---2---2---2---4---4---4---4---*||--6-6-6-6--6--6-6-----------||
------------------5---5-----------|--3---3---------------------------*||----------------------------||
----------------------------------|--5-5---5---5---5------------------||--0-0-0-0--0--0-0-----------||
--1-1---1---1---1-0-0---0---0---0-|------------------3-3---3---3---3--||----------------------------||




Duration Legend
---------------
W - whole
H - half
Q - quarter
E - 8th
S - 16th
T - 32nd
X - 64th
. - note dotted
|-n-|  - n-tuplets


Tablature Legend
----------------
L - tied note
^ - brush up
v - brush down
Login or Register to remove this ad.

1 comment on Stepping Along

I.....Love this so much

I.....Love this so much