Hate is Exceeded (Full Metal Panic!) Guitar Tab

Submitted: Jun 17, 2017 by Coolbreeze

0
Download | Listen
Game: Full Metal Panic!
Composer(s): Toshihiko Sahashi
Style: 2 or more instruments, Transcription

AutoScroll: Slow | Medium | Fast
				 Hate is Exceeded
				~Full Metal Panic!~

Music by Toshihiko Sahashi
Performed by Hiroshi Kobori
Tabbed by Coolbreeze
Tempo = 54

Guitar 1 - Drop D
Guitar 2 - Standard Tuning


Guitar 1

                                   ^                                      
     Q.     S S S S Q.        Q    H.              Q.     S S S S Q.      
E||---------0-1-0----------|--------------------|---------0-1-0----------|
B||---------------1--------|-------1------------|---------------1--------|
G||-----------------0------|-------0------------|-----------------0------|
D||------------------------|--------------------|------------------------|
A||------------------------|-------3------------|------------------------|
D||------------------------|--------------------|------------------------|


                        ^                                                
                                                                  |-3-|  
  Q    H.               Q     H.              Q.     S S S S Q    S S S  
--------------------|----------------------|-------------5-8------0-----|
-------3------------|--13----15------------|---------6-8-----8------3---|
--------------------|--15------------------|--------------------------5-|
--------------------|--15------------------|----------------------------|
--------------------|----------------------|----------------------------|
--------------------|----------------------|----------------------------|


                                           |-3-|                 3  3 3   3   
  H.           Q       Q.     S S S S Q    S S S    H.           S  S.S.  E   
--------------------|-------------5-8------0-----|--------------------8--10--|
--3-----------------|---------6-8-----8------3---|--3--------------10--------|
--------------------|--------------------------5-|---------------------------|
--------------------|----------------------------|---------------------------|
--------------------|----------------------------|---------------------------|
--------------------|----------------------------|---------------------------|


                    |--3-|                   3  3 3   3   
   H.           E   S S  S    Q     H        S  S.S.  E   
---------------------------|----------------------8--10--|
--10---------------10-8----|--8----10----------10--------|
------------------------10-|-----------------------------|
---------------------------|-----------------------------|
---------------------------|-----------------------------|
---------------------------|-----------------------------|


                   |--3-|                                             |-3-|  
   H.           E  S  S S    H        H           Q.     S S S S Q    S S S  
--------------------------|--------------------|-------------5-8------0-----|
--10---------------8----8-|--------------------|---------6-8-----8------3---|
---------------------10---|--9-----------------|--------------------------5-|
--------------------------|--------------------|----------------------------|
--------------------------|--------------------|----------------------------|
--------------------------|--------------------|----------------------------|


                                           |-3-|                 3  3 3   3   
  Q    H.              Q.     S S S S Q    S S S    H.           S  S.S.  E   
--------------------|-------------5-8------0-----|--------------------8--10--|
--3-----------------|---------6-8-----8------3---|--3--------------10--------|
-------5------------|--------------------------5-|---------------------------|
--------------------|----------------------------|---------------------------|
--------------------|----------------------------|---------------------------|
--------------------|----------------------------|---------------------------|


                    |--3-|                   3  3 3   3   
   H.           E   S S  S    Q     H        S  S.S.  E   
---------------------------|----------------------8--10--|
--10---------------10-8----|--8----10----------10--------|
------------------------10-|-----------------------------|
---------------------------|-----------------------------|
---------------------------|-----------------------------|
---------------------------|-----------------------------|


                                                  ^                  
                   |--3-|                                            
   H.           E  S  S S    H        H           W                  
--------------------------|--------------------|-------------------||
--10---------------8----8-|--------------------|-------------------||
---------------------10---|--9-----------------|-------------------||
--------------------------|--------------------|-------------------||
--------------------------|--------------------|--5----------------||
--------------------------|--------------------|--0----------------||




Guitar 2

     ^                    ^                    ^                  
     H        H           Q    H.              H        H         
E||--1-----------------|--------------------|--1-----------------|
B||--3-----------------|--3-----------------|--3-----------------|
G||--2-----------------|--------------------|--2-----------------|
D||--0--------5--------|--3-----------------|--0-----------------|
A||-----------3--------|--1-----------------|-----------3--------|
E||-----------3--------|--------------------|--------------------|


                                          ^        ^         
  W                   W                   H        H         
-------------------|-------------------|--5--------1--------|
--1----------------|-------------------|--6--------1--------|
-------------------|-------------------|--7--------2--------|
--3----------------|-------------------|--7--------3--------|
--1----------------|-------------------|--5--------3--------|
-------------------|-------------------|--------------------|


                      ^        ^                                
  W                   H        H           Q.     S S H         
-------------------|--5--------1--------|----------------------|
--3----------------|--6--------1--------|-------------0--------|
-------------------|--7--------2--------|--0------0-2----------|
--3----------------|--7--------3--------|--0-------------------|
--1----------------|--5--------3--------|----------------------|
-------------------|--------------------|--3-------------------|


                      ^                   ^                 
  W                   W                   W                 
-------------------|--0----------------|-------------------|
-------------------|-------------------|--3----------------|
--3----------------|--2----------------|--3----------------|
--3----------------|-------------------|--3----------------|
--1----------------|--3----------------|--1----------------|
-------------------|-------------------|-------------------|


           ^            ^          ^                               
  H        Q    Q       E  E  Q    H           E  E  H.            
--0------------------|--5----------1--------|---------------------|
--1--------3----1----|--6----------1--------|---------------------|
--0--------2---------|--7----------2--------|---------------------|
-----------2---------|--7-----3----3--------|-----3--L------------|
--3--------0---------|--5--0-------3--------|--1------------------|
---------------------|----------------------|---------------------|


  ^          ^                                       ^             
  E  E  Q    H           E  E  H.              E  E  H.            
--5----------1--------|---------------------|---------------------|
--6----------1--------|---------------------|--3-----3------------|
--7----------2--------|--------2------------|--------2------------|
--7-----3----3--------|-----0--5------------|-----3---------------|
--5--0-------3--------|---------------------|--1------------------|
----------------------|--3------------------|---------------------|


        ^               ^                     ^        ^          
  E  E  H.              E  E  H.              H        Q    Q     
--------0------------|---------------------|--0--------1----0----|
--------1------------|--3-----3------------|--1--------1---------|
--------2------------|---------------------|--0--------0---------|
-----2---------------|-----3---------------|---------------------|
--3------------------|--1------------------|--3--------0---------|
---------------------|---------------------|---------------------|


  ^                  
  W                  
-------------------||
--3----------------||
--2----------------||
--3----------------||
--0----------------||
-------------------||
Login or Register to remove this ad.