Sayonara no Natsu ~Kokuriko-zaka Kara~ (From Up On Poppy Hill) Guitar Tab

Submitted: Nov 14, 2013 by diralark

5
Average: 5 (4 votes)
Download | Listen
Game: From Up On Poppy Hill
Composer(s): Satoshi Takebe, Aoi Teshima
Style: Arrangement, Fingerstyle

AutoScroll: Slow | Medium | Fast
  Sayonara no Natsu  -  from Kokurikozaka kara [From Up On Poppy Hill] 2011 (Studio Ghibli)

Music by Satoshi Takebe (singer : Aoi Teshima) >> solo guitar arrangement by Diralark

Guitar, Tempo 102, let ring

              Intro                                                                          
              >        >        >       ^         >       ^         >  >     ^               
     H        Q        H        Q       Q    Q    Q       Q.     E  E  E     Q    Q    Q     
E||-----------------|-----------0----|------------0----|------------------|-----------------|
B||-----------------|--1-------------|--0--------------|------------------|-----------------|
G||-----------------|--2-------------|-------0---------|--2---------0-----|--0--------------|
D||-----------2-----|----------------|--2--------------|--3------------3--|-------2---------|
A||-----------------|--0-------------|-----------------|---------3--------|--3---------3----|
E||-----------------|----------------|--3---------L----|--1---------0-----|--0--------------|


  >    >    >       ^        >       ^        >       >        >       >               
  Q    Q    Q       H        Q       H        Q       H        Q       Q    Q    Q     
-----------------|----------------|----------------|----------------|-------0---------|
-----------------|-----------1----|--0-------------|----------------|------------3----|
-------0----2----|--2-------------|----------------|--1--------2----|--2--------------|
--3--------------|--2-------------|--4--------4----|----------------|--2--------------|
--5--------------|--3-------------|--2-------------|----------------|--0--------------|
--5---------L----|----------------|----------------|--0-------------|-----------------|


                                                       {V1}                                 
  ^               >                            >       >       >   >  >     >               
  H.              Q    Q    Q        H         Q       Q    E  E   E  E     Q    Q    Q     
---------------|-------0---------|------------------|--------------------|-----------------|
--1------------|------------3----|---1--------------|--1-------1p--0-----|--0--------------|
--2------------|--2--------------|---2--------------|--2--------------2--|--0----0---------|
--2------------|--2--------------|-------------2----|-------2------------|------------2----|
---------------|--0--------------|--(0)-------------|--0-----------------|-----------------|
---------------|-----------------|------------------|--------------------|--0--------------|


  >       >   >  >     >                 ^       >   >  >     >  >  >    >     
  Q    E  E   E  E     Q    Q    Q       Q    E  E   E  E     E  E  Q    Q     
--------------------|-----------------|--------------------|------------------|
--------------------|-------1---------|--------------------|-------------1----|
--2-------2p--0-----|--0--------------|--------------------|--------2---------|
--3--------------3--|------------2----|--3-------3S--2--0--|-----2------------|
-------3------------|--3--------------|--5----5------------|--0---------------|
--1-----------------|-----------------|--------------------|------------------|


  >    >    >       ^                >       >   >  >     ^                >       >   >  >   
  Q    Q    Q       H        Q       Q    E  E   E  E     H        Q       Q    E  E   E  E   
-----------------|----------------|--------------------|----------------|--------------------|
--3----3---------|--0-------------|--1-------1p--0-----|--0-------------|--------------------|
------------2----|--1-------------|--2--------------2--|----------------|--2-------2p--0-----|
--4--------------|--2--------2----|-------2------------|--2-------------|--3--------------3--|
--5--------------|----------------|--0-----------------|-----------2----|-------3------------|
-----------------|----------------|--------------------|--0-------------|--1-----------------|


  >                 >       >   >  >     >  >  >    >       >    >    >       ^        >     
  Q    Q    Q       Q    E  E   E  E     E  E  Q    Q       Q    Q    Q       H        Q     
-----------------|--------------------|------------------|-----------------|----------------|
-----------------|--------------------|-------------1----|--3----3----0----|-----------1----|
--0--------------|--------------------|--------2---------|------------0----|--2-------------|
------------2----|--3-------3S--2--0--|-----2------------|--4---------2----|----------------|
--3----3---------|--5-----------------|--0---------------|--5--------------|--0-------------|
-----------------|--5----5------------|------------------|-----------------|----------------|


  {C1]                                                                          
  ^    >  >  >   >     >         >       >    >  >  >   >     >    >    >   >   
  Q    E  E  E   E     Q    Q    Q       Q    E  E  E   E     Q    Q    E   E   
--0-------0--1p--0--|------------3----|--0-------0---------|-------------------|
--------------------|--3--------------|-------------3p--1--|--0---------1p--0--|
-------0------------|-------0---------|-------2------------|-------0-----------|
--------------------|-----------------|--------------------|-------------------|
--3-----------------|--2--------------|--0-----------------|-------------------|
--------------------|-----------------|--------------------|--3----------------|


  >    >    >   >     >    >    >       >    >    >       ^           >     >    >     >   >   
  Q    Q    E   E     Q    Q    Q       Q    Q    Q       Q    Q.     E     Q    E  E  E   E   
-------------------|-------3---------|-----------------|-----------------|--0-------0--1p--0--|
-------------------|------------1----|--3---------3----|--3--------------|--------------------|
--2---------4p--2--|--0--------------|-------2---------|--------------0--|-------0------------|
-------3-----------|-----------------|--0--------------|-----------------|--------------------|
-------------------|-----------------|-----------------|-------2---------|--3-----------------|
--1----------------|--0--------------|-----------------|--3--------------|--------------------|


  >         >       >    >  >  >   >     >    >    >   >     >    >    >   >   
  Q    Q    Q       Q    E  E  E   E     Q    Q    E   E     Q    Q    E   E   
------------3----|--0-------0---------|-------------------|-------------------|
--3--------------|-------------3p--1--|--0---------1p--0--|-------------------|
-------0---------|-------2------------|-------0-----------|--2---------4p--2--|
-----------------|--------------------|-------------------|-------3-----------|
--2--------------|--0-----------------|-------------------|-------------------|
-----------------|--------------------|--3----------------|--1----------------|


  >    >    >       >    >    >       ^                               >             
  Q    Q    Q       Q    Q    Q       H.              H.              H.            
-------3---------|-----------------|--0------------|---------------|---------------|
------------1----|--3--------------|--0------------|---------------|---------------|
--0--------------|------------2----|--1------------|---------------|---------------|
-----------------|-------4---------|--2------------|---------------|--2------------|
-----------------|--2--------------|---------------|---------------|---------------|
--0--------------|-----------------|---------------|---------------|---------------|


  {V2}                                                                                 
  >          >   >  >     >              >     >        >   >  >     >           >     
  E    E  E  E   E  E     E  E  E  E  E  E     E  E  E  E   E  E     E  E  E  E  Q     
-----------------------|--------------------|---------------------|-------------------|
--1----------1p--0-----|--0-----------0-----|---------------------|--------1----------|
----------2---------2--|-----------0--------|--2--------2p--0-----|--0----------------|
-------2---------------|--------2--------2--|-----3------------3--|-----2--------2----|
--0--------------------|-----2--------------|--------3------------|--3--------3-------|
-----------------------|--0-----------------|--1------------------|-------------------|


  >        >   >   >     >  >  >     >        >     >     >        >                  
  E  E  E  E   E   E     E  E  E  E  E  E     E  E  E  E  E  E     E  E  E  E  E  E   
----------------------|--------------------|--------------------|--------------0-----|
----------------------|--------------1-----|--3-----3-----------|--0--------------0--|
----------------------|--------2--------2--|--------------2-----|--------1-----------|
--3--------3S--2p--0--|-----2-----2--------|-----4-----4-----0--|-----------2--------|
--5-----5-------------|--0-----------------|--5-----------------|-----2--------------|
--5--5----------------|--------------------|--------------------|--0-----------------|


  >        >   >  >     >              >     >        >   >  >     >           >      
  E  E  E  E   E  E     E  E  E  E  E  E     E  E  E  E   E  E     E  E  E  E  E  E   
---------------------|--------0-----------|---------------------|--------0-----------|
--1--------1p--0-----|--0--------0--------|---------------------|-----------1--------|
-----2------------2--|-----0--------0-----|--2--------2p--0-----|--0-----0--------0--|
--------2------------|-----------------2--|--------3---------3--|-----2--------2-----|
--0------------------|--------2-----------|-----3---------------|--3-----------------|
---------------------|--0-----------------|--1------------------|--------------------|


  >        >   >  >     >  >  >     >        >     >     >       ^        >     
  E  E  E  E   E  E     E  E  E  E  E  E     E  E  E  E  Q       H        Q     
---------------------|--------0-----------|-------------------|----------------|
---------------------|--------------1-----|--3-----3-----0----|-----------1----|
---------------------|--------2--------2--|--------------0----|--2-------------|
--3--------3S--2--0--|-----2-----2--------|--4--4-----0--2----|----------------|
--5-----5------------|--0-----------------|--5----------------|--0-------------|
--5--5---------------|--------------------|-------------------|----------------|


  {C2}                                                                                   
  >          >  >   >     >           >        >        >  >   >     >           >   >   
  E    E  E  E  E   E     E  E  E  E  E  E     E  E  E  E  E   E     E  E  E  E  E   E   
--0----------0--1p--0--|--------------3-----|--0--------0---------|---------------------|
-------1---------------|--3-----3-----------|--1-----------3p--1--|--0-----------1p--0--|
----------0------------|-----0-----------0--|--------2------------|--------0------------|
-----------------------|-----------0--------|-----2---------------|-----0-----0---------|
--3--------------------|--2-----------------|--0------------------|---------------------|
-----------------------|--------------------|---------------------|--3------------------|


  >        >  >   >     >     >     >        >        >  >        >              >   
  E  E  E  E  E   E     E  E  E  E  E  E     E  E  E  E  E  E     E  E  E  E  E  E   
---------------------|--------3-----------|--------------------|--------------------|
---------------------|--------------1-----|--3-----------3-----|--3-----------3-----|
--2--------2--4p--2--|--0--------0-----0--|-----2-----2-----2--|-----0-----------0--|
-----3---------------|--------------------|--0-----0-----------|-----------0--------|
--------3------------|-----3--------------|--------------------|--------2-----------|
--1------------------|--0-----------------|--------------------|--3-----------------|


  >        >  >   >     >           >        >        >  >   >     ^           >   >   
  E  E  E  E  E   E     E  E  E  E  E  E     E  E  E  E  E   E     E  E  E  E  E   E   
--0--------0--1p--0--|--------------3-----|--0--------0---------|---------------------|
--------1------------|--3-----3-----------|--------------3p--1--|--0-----------1p--0--|
-----0---------------|-----0-----------0--|--------2------------|-----0-----0---------|
---------------------|-----------0--------|-----2---------------|--------0------------|
--3------------------|--2-----------------|--0------------------|---------------------|
---------------------|--------------------|---------------------|--3------------------|


  >           >   >     >     >     >        >     >     >        ^        >     
  E  E  E  E  E   E     E  E  E  E  E  E     E  E  E  E  E  E     H        Q     
---------------------|--------3-----------|--------------------|--0-------------|
---------------------|--------------1-----|--3-----------3-----|--0-------------|
--2--------2--4p--2--|--0--------0-----0--|--2-----2-----------|--1-------------|
--3--3---------------|--------------------|-----4-----4-----4--|-----------2----|
--------3------------|-----3--------------|--2-----------------|----------------|
--1------------------|--0-----------------|--------------------|--0-------------|


  {V3}                                                                           
  >       >   >  >     >          >       >       >   >  >     >                 
  Q    E  E   E  E     E  E  Q    Q       Q    E  E   E  E     E  E  E  E  Q     
--------------------|------------------|--------------------|-------------------|
--1-------1p--0-----|--0---------------|--------------------|--------1----------|
--2--------------2--|--0-----0---------|--2-------2p--0-----|--0----------------|
-------2------------|-------------2----|-----------------3--|-----2--------2----|
--0-----------------|-----2------------|-------3------------|--3--------3-------|
--------------------|--0---------------|--1-----------------|-------------------|


  Dm (V)              Am (V)                                                   
  ^                   >      >  >    >       >         >       >               
  Q.     E   E  E     E      E  Q    Q       Q    Q    Q       Q    Q    Q     
-------------------|----------------------|-----------------|-----------------|
--6------6p--5-----|----------------------|--3--------------|--0--------------|
----------------7--|-----------------5----|------------2----|--1--------------|
--7----------------|------------7---------|-------4---------|--2---------2----|
--5----------------|---------7------------|--5--------------|-------2---------|
-------------------|--5-------------------|-----------------|-----------------|


  >       >   >  >     >         >       >       >   >  >     >         >     
  Q    E  E   E  E     Q    Q    Q       Q    E  E   E  E     Q    Q    Q     
--------------------|-------0---------|--------------------|-------0---------|
--1-------1p--0-----|--0--------------|--------------------|-----------------|
--2--------------2--|--0--------------|--2-------2p--0-----|--0--------------|
-------2------------|------------2----|--3--------------3--|--2---------2----|
--0-----------------|-----------------|-------3------------|--3--------------|
--------------------|--0--------------|--1-----------------|-----------------|


  >       >   >  >     >  >  >    >       >    >    >       ^                             
  Q    E  E   E  E     E  E  Q    Q       Q    Q    Q       H.              H.            
--------------------|------------------|-----------------|---------------|---------------|
--------------------|-------------1----|--3----3----0----|---------------|---------------|
--------------------|--------2---------|------------0----|--2------------|--L------------|
--3-------3S--2--0--|-----2------------|--4---------2----|--2------------|--L------------|
--5-----------------|--0---------------|--5--------------|--0------------|--L------------|
--5----5------------|------------------|-----------------|---------------|---------------|


            >       >         >       ^         >       ^         >  >     ^               
  Q    Q    Q       Q    Q    Q       Q    Q    Q       Q.     E  E  E     Q    Q    Q     
-----------------|------------0----|------------0----|------------------|-----------------|
-----------------|--1--------------|--0--------------|------------------|-----------------|
--L--------------|--2--------------|-------0---------|--2---------0-----|--0--------------|
--L---------2----|-------2---------|--2--------------|--3------------3--|-------2---------|
--L--------------|--0--------------|-----------------|---------3--------|--3---------3----|
-----------------|-----------------|--3--------------|--1---------0-----|--0--------------|


  >    >    >       ^        >       ^        >       >        >       >    >    >     
  Q    Q    Q       H        Q       H        Q       H        Q       Q    Q    Q     
-----------------|----------------|----------------|----------------|-------0---------|
-----------------|-----------1----|--0-------------|----------------|------------3----|
-------0----2----|--2-------------|----------------|--1--------2----|--2--------------|
--3--------------|--2-------------|--4--------4----|----------------|--2--------------|
--5--------------|--3-------------|--2-------------|----------------|--0--------------|
-----------------|----------------|----------------|--0-------------|-----------------|


  ^               >    >    >        ^                               
  H.              Q    Q    Q        H.               H.             
---------------|-------0---------|-----------------|---------------||
--1------------|------------3----|--(1)------------|--L------------||
--2------------|--2--------------|--(2)------------|--L------------||
--2------------|--2--------------|--(2)------------|--L------------||
---------------|--0--------------|---0-------------|--L------------||
---------------|-----------------|-----------------|---------------||

Legend
---------------
H - half
Q - quarter
E - 8th
. - note dotted
L - tied note
(n) - ghost note
> - accentuded note
h - hammer on
p - pull off
S - slide
^ - brush up

Login or Register to remove this ad.

6 comments on Sayonara no Natsu ~Kokuriko-zaka Kara~

Nicely done.

5

Nicely done.

Thanks! Well I'm disappointed

Thanks! Well I'm disappointed by the render of the guitar playing this melody, then I probably won't play it in the futute, instead I prefer the Aoi Teshima voice ^^
It was probably impossible to match her voice with a guitar, she has a voice like violin : soft & with a long sustain and she plays a lot with breath, volume... etc. She's just incredible : http://www.youtube.com/watch?v=6XPfUOZCrFM

Maybe you could play the

Maybe you could play the accompaniment and sing the melody. (How come Gametabs has so few tabs like that?)

Indeed accompaniment tabs for

Indeed accompaniment tabs for singer are rares, I even never did one like that, or think about it. Well it's a interesting idea u suggest me because it's offer a new point of view about this song, well as Aoi Teshima's fan I can't resist to accept your quest Auriplane so.. I'm on it ^^

Long time no see! :3

5

Long time no see! :3

Yep :)Now I'm studying music

Yep :)
Now I'm studying music trough different ways nevertheless I still love to ride the gametabs way (vg,animé) :D