Sayonara no Natsu ~Kokuriko-zaka Kara~ (From Up On Poppy Hill) Guitar Tab

Submitted: Nov 10, 2013 by Basisti94

5
Average: 5 (6 votes)
Download | Listen
Game: From Up On Poppy Hill
Composer(s): Satoshi Takebe, Aoi Teshima
Style: Arrangement, Fingerstyle

AutoScroll: Slow | Medium | Fast
                    Sayonara No Natsu ~Kokuriko-zaka Kara~


From Up on Poppy Hill / Kokuriko-zaka Kara
Aoi Teshima
Guitar arrangement by Basisti94 (Miro Laaksonen)
6.11.2013

---------------------------------
My arrangement of the full ending song of From Up On Poppy Hill,
Sayonara No Natsu, which is one of the most beautiful songs I know. 
This turned out to be by far my longest arrangement, but oh well. 
---------------------------------


Capo 2 (required due to stretches)
Tempo ~ 105
                      ^                                                   
     H        Q       Q    Q    Q       Q    Q    Q       H        E  E   
E||----------------|--1---------5----|--0---------5----|-----------------|
B||----------------|--3--------------|-----------------|--3--------1-----|
G||-----------2----|--2----2---------|-------2---------|--3-----------3--|
D||----------------|--0--------------|-----------------|-----------3-----|
A||----------------|-----------------|--3--------------|--1--------------|
E||----------------|-----------------|-----------------|-----------------|


  Q    Q    Q       Q    E  E  Q       Q    Q    Q       Q    Q    Q     
-----------------|------------------|------------1----|--0--------------|
--1--------------|-------1-----3----|-------3---------|------------0----|
--2----0---------|--3-------3-------|--2--------------|------------1----|
------------3----|-------0----------|-----------------|-----------------|
-----------------|------------------|-----------------|-------2---------|
--1--------------|--3---------------|--1--------------|--0--------------|


  Q    Q    Q       Q    Q    Q       H        Q       Q    Q    Q     
-----------------|------------0----|----------------|------------0----|
--2---------3----|--3--------------|--L-------------|-----------------|
--0--------------|-------2---------|--0-------------|-------2---------|
-------3----2----|--0--------------|--0-------------|--0--------------|
--0--------------|-----------------|-----------0----|-----------------|
-----------------|-----------------|----------------|-----------------|


                   ^                                                      
  H        Q       Q    E  E  E  E     H        Q       Q    E  E  E  E   
----------------|--1-------1--0-----|--0-------------|-------------------|
----------------|--3-------------3--|--1-------------|--3-------3--1-----|
--0--------2----|--2----2-----------|-----------2----|-------0--------3--|
--0-------------|--0----------------|----------------|--0----------------|
----------------|-------------------|--0-------------|-------------------|
----------------|-------------------|----------------|-------------------|


  H        Q       Q.     E  E  E     E  E  Q.     E     Q    Q    E  E   
----------------|------------------|---------------1--|--3----3----------|
--1-------------|------------------|--------3---------|---------------3--|
--2-------------|--3------3--2--0--|-----2------------|------------------|
--3--------3----|--0---------------|--3---------------|------------0-----|
----------------|------------------|------------------|--2---------------|
----------------|--3---------------|------------------|--3---------------|


                    ^                                                      
  Q    Q    Q       Q    E  E  E  E     H        Q       Q    E  E  E  E   
-------5---------|--1-------1--0-----|--0-------------|-------------------|
--5--------------|--3-------------3--|--1-------------|--3-------3--1-----|
------------2----|--2----2-----------|--2--------2----|-------------3--3--|
-----------------|--0----------------|----------------|-------3-----------|
--0--------------|-------------------|--0-------------|--1----------------|
-----------------|-------------------|----------------|-------------------|


  H        Q       Q    E  E  E  E     E  E  Q    E  E     E  E  Q.     E   
----------------|-------------------|----------------1--|--3--3--0---------|
--1-------------|-------------------|--------3----------|---------------1--|
--0-------------|--3-------3--2--0--|-----2-------------|--0---------------|
-----------3----|-------0-----------|--3----------------|------------------|
----------------|-------------------|-------------3-----|--1-----0---------|
--3-------------|--3----------------|-------------------|------------------|


  Q    Q    Q       E  E  E  E  E  E     Q    Q    Q       E  E  E  E  E  E   
------------1----|--5--------5--6--5--|--3---------8----|--5--------5--3-----|
--3--------------|--------------------|-----------------|--------3--------6--|
-------2---------|--------------------|-----------------|-----2--------------|
--0--------------|--------3-----------|-----------------|--0-----------------|
-----------------|-----3--------------|-------3---------|--------------------|
-----------------|--1-----------------|--0--------------|--------------------|


  Q    Q    E  E     Q    E  E  E  E     Q    Q    E  E     E  E  Q    Q     
--0---------1--0--|-------------0-----|-------5----------|-----3------------|
------------------|--3-------------3--|---------------6--|--3---------------|
-------2----------|----------3--------|--5---------5-----|--------0---------|
------------------|-------3-----------|-------3----------|-------------0----|
--3---------------|--1----------------|--0---------------|------------------|
------------------|-------------------|------------------|--3---------------|


  Q    E  E  Q       E  E  E  E  E  E     Q    Q    Q       E  E  E  E  E  E   
------------------|--5--------5--6--5--|--3---------8----|--5--------5--3-----|
-------------1----|--------------------|-----------------|--------3--------6--|
-------------0----|--------------------|-----------------|-----2--------------|
--2----2--3--2----|--------3-----------|-----------------|--0-----------------|
--3----3----------|-----3--------------|-------3---------|--------------------|
------------------|--1-----------------|--0--------------|--------------------|


  Q    Q    E  E     Q    Q    E  E     Q    Q.     E     E  E  E  E  E  E   
--0---------1--0--|------------0-----|-------8------3--|--L--5-----------0--|
------------------|--3------------3--|-----------------|--------------3-----|
-------2----------|------------------|--5--------------|-----------0--------|
------------------|-------3----------|--3--------------|--------2-----------|
--3---------------|--1---------------|-----------------|--------------------|
------------------|------------------|-----------------|--0-----------------|


                    ^                                                       
  Q    Q    Q       Q    E  E  E  E     H        Q       E  E  E  E  E  E   
-----------------|--1-------1--0-----|--0-------------|--------------------|
--2--------------|--3-------------3--|--1-------------|--3--------3--1-----|
------------2----|--2----2-----------|-----------2----|--------3--------3--|
-------2---------|--0----------------|----------------|-----3--------------|
--0--------------|-------------------|--0-------------|--1-----------------|
-----------------|-------------------|----------------|--------------------|


  H        Q       Q    E  E  E  E     E  E  Q    E  E     E  E  Q.     E   
----------------|-------------------|----------------1--|--3--3--0---------|
--1-------------|-------------------|--------3----------|---------------1--|
--2-------------|--3-------3--2--0--|-----2-------------|--0---------------|
-----------3----|-------0-----------|--3----------------|------------------|
----------------|-------------------|-------------3-----|--1-----0---------|
--1-------------|--3----------------|-------------------|------------------|


  H.              Q    Q    Q       H.              Q    Q    Q     
---------------|-------0----1----|---------------|-----------------|
--3------------|--3--------------|--1------------|-------1----3----|
--2------------|-----------------|---------------|--3--------------|
--0------------|-----------------|---------------|-----------------|
---------------|--1--------------|--0------------|-----------------|
---------------|-----------------|---------------|--3--------------|


  H        E  E     E  E  E  E  E  E     Q    Q    Q       Q    E  E  E  E   
-----------------|--------------------|--3----5----6----|--5----------0-----|
-----------------|-----------------3--|-----------------|----------------3--|
--2--------0-----|--------0--2--3-----|-----------------|-------0--2--------|
--------------3--|--------------------|-----------------|-------------------|
-----------------|-----1--------------|-----------------|--0----------------|
--1--------------|--3-----------------|--3--------------|-------------------|


                   ^                                                       
  H        Q       Q    E  E  E  E     Q    Q    Q       Q    E  E  E  E   
----------------|--1-------1--0-----|--0--------------|-------------------|
--2-------------|--3-------------3--|-----------------|--3-------3--1-----|
--2--------2----|--2----2-----------|------------2----|--3-------------3--|
----------------|--0----------------|-------0----2----|-------3-----------|
--0-------------|-------------------|--0--------------|--1----------------|
----------------|-------------------|-----------------|-------------------|


  Q    Q    Q       Q    E  E  E  E     E  E  Q.     E     Q    Q    E  E   
-----------------|-------------------|---------------1--|--3----3----------|
--1--------------|-------------------|--------3---------|---------------3--|
-------0---------|--3-------3--2--0--|-----2------------|--0---------------|
------------3----|-------0-----------|--3---------------|------------0-----|
-----------------|-------------------|------------------|--2---------------|
--1--------------|--3----------------|------------------|--3---------------|


                    ^                                                      
  Q    Q    Q       Q    E  E  E  E     H        Q       Q    E  E  E  E   
--0--------------|--1-------1--0-----|--0-------------|-------------------|
--2--------------|--3-------------3--|--1-------------|--3-------3--1-----|
--2---------2----|--2----2-----------|--2--------2----|--3-------------3--|
-------2---------|--0----------------|-----------2----|-------3-----------|
--0--------------|-------------------|--0-------------|--1----------------|
-----------------|-------------------|----------------|-------------------|


  Q    Q    Q       Q    E  E  E  E     E  E  Q    E  E     E  E  Q.     E   
-----------------|-------------------|----------------1--|--3--3--0---------|
--1--------------|-------------------|--------3----------|---------------1--|
--2----2---------|--3-------3--2--0--|-----2-------------|--0---------------|
--3---------3----|-------0-----------|--3----------------|------------------|
------------3----|-------------------|-------------3-----|--1-----0---------|
--1--------------|--3----------------|-------------------|------------------|


  E  E  E  E  E  E     E  E  E  E  E  E     Q    Q    Q     
--------------1-----|--5--------5--6--5--|--3---------8----|
--3-----------------|--------------------|-----------------|
-----------------0--|--------------------|-----------------|
--0-----0--2--3-----|--------3-----------|-----------------|
-----0--------------|-----3--------------|-------3---------|
--------------------|--1-----------------|--0--------------|


  ^                                                          
  E  E  E  E  E  E     Q    Q    E  E     E  E  E  E  E  E   
--5--------5--3-----|--0---------1--0--|--------------0-----|
--3-----3--------6--|------------------|--3--------------3--|
--2--2--------------|-------2----------|--------3-----------|
--0-----------------|------------------|-----3-----3--------|
--------------------|--3---------------|--1-----------------|
--------------------|------------------|--------------------|


  E  E  E  E  E  E     E  E  Q    Q       Q    E  E  Q       E  E  E  E  E  E   
--------5-----------|-----3--L---------|------------------|--5--------5--6--5--|
-----------------6--|--3---------------|-------------1----|--------------------|
--5-----------5-----|--------0---------|-------------0----|--------------------|
-----------5--------|-----0-------0----|--2----2--3--2----|--------3-----------|
--0--3--------------|------------------|--3----3----------|-----3--------------|
--------------------|--3---------------|------------------|--1-----------------|


                    ^                                                           
  Q    Q    Q       E  E  E  E  E  E     Q    E  E  E  E     E  E  E  E  E  E   
--3---------8----|--5--------5--3-----|--0----------1--0--|--------------0-----|
-----------------|--3-----3--------6--|----------3--------|--3--------------3--|
-----------------|--2--2--------------|-------2-----------|--------3-----------|
-----------------|--0-----------0-----|-------------------|-----3-----3--------|
-------3---------|--------------------|--3----------------|--1-----------------|
--0--------------|--------------------|-------------------|--------------------|


  Q    Q    E  E     E  E  E  E  E  E     Q    Q    Q       Q    E  E  E  E   
-------8-------3--|--L--5--------------|-----------------|--1-------1--0-----|
------------------|-----------------3--|--2--------------|----------------3--|
--5---------------|-----------0--2-----|------------2----|--2----2-----------|
--3---------3-----|--------2-----------|-------2---------|--0----------------|
------------------|--------------------|--0--------------|-------------------|
------------------|--0-----------------|-----------------|-------------------|


  Q    Q    Q       Q    E  E  E  E     Q    Q    Q       Q    E  E  E  E   
--0--------------|-------------------|-----------------|-------------------|
--1----1---------|--3-------3--1-----|--1--------------|-------------------|
-------2----2----|----------------3--|--2----0---------|--3-------3--2--0--|
------------2----|-------3-----------|--3---------3----|-------0-----------|
--0--------------|--1----------------|-----------------|-------------------|
-----------------|-------------------|-----------------|--3----------------|


  E  E  Q    E  E     E  E  Q.     E     H        Q       E  E  E  E  E  E   
----------------1--|--3--3--0---------|----------------|--1--------1--0-----|
--------3----------|---------------1--|--3-------------|--------3--------3--|
-----2-------------|--0---------------|--2--------2----|-----2--------------|
--3----------------|------------------|--0-------------|--0-----------------|
-------------3-----|--1-----0---------|-----------0----|--------------------|
-------------------|------------------|----------------|--------------------|


  Q    Q    Q       E  E  E  E  E  E     Q    Q    Q       E  E  E  E  Q     
--0--------------|--------------------|-----------------|-------------------|
-----------------|--3--------3--1-----|--1--------------|--------1-----3----|
------------2----|--------3--------3--|-------2---------|--3--------2-------|
-------2---------|-----3--------------|------------3----|-----0-------------|
--3---------3----|--1-----------------|--0--------------|-------------------|
-----------------|--------------------|-----------------|--3----------------|


  E  E  E  E  Q       E  E  E  E  E  E     E  E  E  E  E  E   
--------------1----|--0-----------------|--0-----------------|
--------3----------|-----------3--2--3--|--------------------|
--2-----------2----|--------1-----------|-----2--0-----2-----|
-----0-----0-------|--------------2-----|-----------2--------|
-------------------|-----2-----2-----2--|--0--------------0--|
--1----------------|--0-----------------|--------------------|


  E  E  E  E  E  E     E  E  E  E  Q       E  E  E  E  E  E   
--1--------1--3--5--|--0----------------|--------------0--1--|
--------3-----------|-----1-------------|--3--------3--------|
-----2--------------|--------2-----2----|--------3-----------|
--0-----------------|-----------2-------|-----3--------------|
--------------------|--0----------------|--1-----------------|
--------------------|-------------------|--------------------|


  E  E  E  E  S  S  S S    E  E  E  E  E  E     E  E  E  E  E  E   
------------------------|--------------------|--------------1-----|
--1-----------0h-1p-0---|--0-----1-----3-----|--------3-----------|
-----2----------------2-|--0-----------------|--2-----------------|
--------3---------------|-----0-----0-----0--|-----0-----0-----0--|
--0--------0------------|--------------------|--------------------|
------------------------|--3-----------------|--1-----------------|


  E  E  E  E  E  E     Q    Q    Q       H        Q       Q    Q    Q     
--3-----0-----0-----|------------0----|----------------|------------0----|
-----------------1--|--3--------------|--L-------------|-----------------|
--------0-----0-----|-------2---------|--0-------------|-------2---------|
-----2-----2--------|--0--------------|--0-------------|--0--------------|
--0-----------------|-----------------|-----------0----|-----------------|
--------------------|-----------------|----------------|-----------------|


  H        Q       Q    E  E  E  E     Q    Q    Q       Q    E  E  E  E   
----------------|--1-------1--0-----|--0--------------|-------------------|
--L-------------|----------------3--|-----------------|--3-------3--1-----|
--0--------2----|--2----2-----2-----|------------2----|----------------3--|
--0-------------|-------------------|--5----5----5----|--3----3-----3-----|
----------------|-------------------|-----------------|-------------------|
----------------|-------------------|-----------------|-------------------|


  Q    Q    Q       Q    E  E  E  E     E  E  Q    E  E     Q    Q    E  E   
-----------------|-------------------|----------------1--|--3----3----------|
--1--------------|-------------------|--------3----------|---------------3--|
-------2---------|--3-------3--2--0--|-----2-------------|------------------|
--3---------3----|--0----0-----0-----|--3----------------|--0----0----0-----|
-----------------|-------------------|--0-----0----0-----|--0----0----0-----|
-----------------|-------------------|-------------------|------------------|


                    ^                                                      
  Q    Q    Q       Q    E  E  E  E     H        Q       Q    E  E  E  E   
--0--------------|--1-------1--0-----|--0-------------|-------------------|
-----------------|--3-------------3--|--1-------------|--3-------3--1-----|
------------2----|--2----2-----------|--2--------2----|--3-------------3--|
-------2---------|--0----------------|-----------2----|-------3-----------|
--0--------------|-------------------|--0-------------|--1----------------|
-----------------|-------------------|----------------|-------------------|


  Q    Q    Q       Q    E  E  E  E     E  E  Q    E  E     E  E  Q.     E   
-----------------|-------------------|----------------1--|--3--3--0---------|
--1--------------|-------------------|--------3----------|---------------1--|
--2----2---------|--3-------3--2--0--|-----2-------------|--0---------------|
--3---------3----|-------0-----------|--3----------------|------------------|
------------3----|-------------------|-------------3-----|--1-----0---------|
--1--------------|--3----------------|-------------------|------------------|


  E  E  E  E  E  E     E  E  E  E  E  E     Q    Q    Q     
--------------1-----|--5--------5--6--5--|--3---------8----|
--3-----------------|--------------------|-----------------|
-----------------0--|--------------------|-----------------|
--0-----0--2--3-----|--------3-----------|-----------------|
-----0--------------|-----3--------------|-------3---------|
--------------------|--1-----------------|--0--------------|


  ^                                                          
  E  E  E  E  E  E     Q    Q    E  E     E  E  E  E  E  E   
--5--------5--3-----|--0---------1--0--|--------------0-----|
--3-----3--------6--|------------------|--3--------------3--|
--2--2--------------|-------2----------|--------3-----------|
--0-----------------|------------------|-----3-----3--------|
--------------------|--3---------------|--1-----------------|
--------------------|------------------|--------------------|


  E  E  E  E  E  E     E  E  Q    Q       Q    E  E  Q       E  E  E  E  E  E   
--------5-----------|-----3--L---------|------------------|--5--------5--6--5--|
-----------------6--|--3---------------|-------------1----|--------------------|
--5-----------5-----|--------0---------|-------------0----|--------------------|
-----------5--------|-----0-------0----|--2----2--3--2----|--------3-----------|
--0--3--------------|------------------|--3----3----------|-----3--------------|
--------------------|--3---------------|------------------|--1-----------------|


                    ^                                                           
  Q    Q    Q       E  E  E  E  E  E     Q    E  E  E  E     E  E  E  E  E  E   
--3---------8----|--5--------5--3-----|--0----------1--0--|--------------0-----|
-----------------|--3-----3--------6--|----------3--------|--3--------------3--|
-----------------|--2--2--------------|-------2-----------|--------3-----------|
-----------------|--0-----------0-----|-------------------|-----3-----3--------|
-------3---------|--------------------|--3----------------|--1-----------------|
--0--------------|--------------------|-------------------|--------------------|


  Q    Q    E  E     E  E  E  E  E  E     Q    Q    Q       Q    E  E  E  E   
-------8-------3--|--L--5--------------|-----------------|--1-------1--0-----|
------------------|-----------------3--|--2--------------|----------------3--|
--5---------------|-----------0--2-----|------------2----|--2----2-----------|
--3---------3-----|--------2-----------|-------2---------|--0----------------|
------------------|--------------------|--0--------------|-------------------|
------------------|--0-----------------|-----------------|-------------------|


  Q    Q    Q       Q    E  E  E  E     Q    Q    Q       Q    E  E  E  E   
--0--------------|-------------------|-----------------|-------------------|
--1----1---------|--3-------3--1-----|--1--------------|-------------------|
-------2----2----|----------------3--|--2----0---------|--3-------3--2--0--|
------------2----|-------3-----------|--3---------3----|-------0-----------|
--0--------------|--1----------------|-----------------|-------------------|
-----------------|-------------------|-----------------|--3----------------|

                rall.---------------------                      Tempo ~ 105
                     ^    ^                 ^                          
  E  E  Q.     E     Q    Q.     E     Q    H           H        Q     
---------------1--|--3----0---------|-------5--------|--L-------------|
--------3---------|--0----1------1--|--3----3--------|--L-------------|
-----2------------|-------0---------|--2----2--------|--L--------2----|
--3---------------|--0--------------|--0-------------|--L-------------|
------------------|-------0---------|----------------|----------------|
------------------|--0--------------|----------------|----------------|


  E  E  E  E  E  E     E  E  E  E  Q       E  E  E  E  E  E   
--1--------1--0-----|--0----------------|--------------------|
-----3-----------3--|-----1-------------|--3--------3--1-----|
--------2-----------|--------2-----2----|-----3-----------3--|
--0-----------------|-----------2-------|--------3-----------|
--------------------|--0----------------|--1-----------------|
--------------------|-------------------|--------------------|


  E  E  E  E  Q       E  E  E  E  Q       E  E  E  E  Q     
-------------------|-------------------|--------------1----|
--1----------------|--------1-----3----|--------3----------|
-----2-------------|--3--------2-------|--2--------2-------|
--------3-----3----|-----0-------------|-----0-------------|
--0--------3-------|-------------------|-------------------|
-------------------|--3----------------|--1----------------|


                                  |---5---|                       
  E  E  E  E  E  E     E  E  Q    S S S S S    E  E  E  E  E  E   
--0-----------------|--0------------------0-|--1--------1--3--5--|
-----------3--2--3--|---------------0-1-3---|--------3-----------|
--------1-----------|--------2----2---------|-----2--------------|
--------------2-----|-----2-----------------|--0-----------------|
-----2-----2-----2--|--0----------0---------|--------------------|
--0-----------------|-----------------------|--------------------|


  E  E  E  E  Q       E  E  E  S S E  E     E  E  E  E  Q     
--0----------------|-----------0---------|-------------------|
-----1-------------|--3----------3-1-----|--1----------------|
--------2-----2----|--------3---------3--|--------0----------|
-----------2-------|-----3---------------|--------------3----|
--0----------------|--1------------------|-----3-----3-------|
-------------------|---------------------|--1----------------|


                                           ^    ^                            
  E  E  E  E  Q       E  E  E  E  E  E     Q    Q.     E     Q    Q    Q     
-------------------|-----------------1--|--3----0---------|-----------------|
--------1-----3----|--------3-----3-----|--0----1------1--|--3--------------|
--3--------2-------|--2--------2--------|-------0---------|--2---------0----|
-----0-------------|-----0--------------|--0--------------|--0----0----0----|
-------------------|--------------------|-------0---------|-----------------|
--3----------------|--1-----------------|--0--------------|-----------------|


                    ^                              
  Q    Q    Q       H.              H.             
------------3----|--2------------|--L------------||
-------3----3----|--3------------|--L------------||
--2----2---------|--2------------|--L------------||
--3--------------|--0------------|--L------------||
-----------------|---------------|---------------||
-----------------|---------------|---------------||


Aoi Teshima <3


Duration Legend
---------------
W - whole
H - half
Q - quarter
E - 8th
S - 16th
T - 32nd
X - 64th
. - note dotted
|-n-|  - n-tuplets


Tablature Legend
----------------
rall. - gradually slow down
L - tied note
x - dead note
g - grace note
(n) - ghost note
> - accentuded note
NH - natural harmonic
AH - artificial harmonic
TH - tapped harmonic
SH - semi harmonic
PH - pitch harmonic
h - hammer on
p - pull off
b - bend
S - shift slide
s - legato slide
/ -  slide into from below or out of upwards
\ -  slide into from above or out of downwards
~ - vibrato
W - wide vibrato
tr - trill
TP - tremolo picking
T - tapping
S - slap
P - pop
< - fade in
^ - brush up
v - brush down
Login or Register to remove this ad.

5 comments on Sayonara no Natsu ~Kokuriko-zaka Kara~

Pretty awesome, when playing

5

Pretty awesome, when playing through I really thought it was a yuki kajiura song :D

Oh I planned publish this

5

Oh I planned publish this week my own arr. after a hard labour -_-' but u are faster :D
So I can say your arrangement is very nice, but some notes are wrong (it's obvious at beginning, and inside intro), maybe u don't use right chords in this case.
My version seems to me more "harmonically correct", so if u want, u will can use it to fix these errors.
I like the rhythm u wrote. As noob transcriber I was unable to find a interesting rhythm, mine is a kind of boring stuff T_T well i'm just learning, and this ost is a good exercise. So now I can use your arr. to learn about rhythm :)

Nice to see I'm not the only

Nice to see I'm not the only one who loves this song :D
I based my version on this piano sheet I found (not very good as a piano arrangement), which I assumed was correct.
I'd love to see your version for comparison.

I love this song too :)

I love this song too :) Thanks for arrangement!

Not only the song, I like the

Not only the song, I like the singer Aoi Teshima, her voice is so pure '*_*'
just submitted my version so u can find it now http://www.gametabs.net/forum/947
Enjoy the comparison !

a bonus track : Aoi Teshima + a sweet guitar = Happyness !!

http://www.youtube.com/watch?v=Mi5Q4hXkI1g