Hatsukoi no Koro (From Up On Poppy Hill) Guitar Tab

Submitted: Nov 29, 2014 by Basisti94

5
Average: 5 (3 votes)
Download | Listen
Game: From Up On Poppy Hill
Composer(s): Satoshi Takebe, Aoi Teshima
Style: Arrangement, Fingerstyle

This song is also called In the Days of First Love

AutoScroll: Slow | Medium | Fast
                    Hatsukoi no Koro


From Up on Poppy Hill / Kokuriko-zaka Kara
Aoi Teshima
Guitar arrangement by Basisti94 (Miro Laaksonen)
27.11.2014

Check the song or the midi file for the rhythm if you are not familiar with the song.


      |-3-|
E E =  Q E

Tempo ~ 121
     E  S S E  E  E  E  E  E     Q    E  E  Q    E  E     Q    E  Q    E  Q     
E||---------------------------|-------0----------------|-----------------------|
B||---------------------------|-------1-----1----------|-------1--0----1--3----|
G||---------0--0--0--0--0--0--|-------0-----0-------0--|--2--------------------|
D||---------------------------|------------------------|--3----3--0----2-------|
A||---------------0--0--2--2--|--3-------3--0----0-----|-----------------------|
E||-----1-2-3--3--------------|------------------------|--1-------3-------3----|


  Q    E  E  E  Q    E     Q    E  Q    E  Q       Q    E  E  Q    Q     
-------0----------------|-----------------------|-------3-----1----0----|
-------1----------------|-----------------------|------------------1----|
----------------0-------|-------0---------------|--0-------0------------|
----------2-----2-------|--3-------3----2--0----|--2--------------------|
--3----------0--0----0--|------------------2----|--3--------------------|
------------------------|--1-------3-------3----|-----------------------|


  Q    E  E  Q    E  E     Q    E  E  Q    Q       Q    E  E  Q    Q     
------------------------|------------------1----|--0--------------------|
--3----1-----0----1-----|-------------1---------|-------3-----1----3----|
------------------2--0--|-------2----------2----|-----------------------|
----------2-------------|--3---------------3----|----------0------------|
--0---------------------|----------3------------|-----------------------|
------------------------|--1--------------------|--3----------3----3----|


  Q    E  E  E  Q    E     Q    E  Q    E  E  E     Q    Q    Q    E  E   
-------0----------------|------------------------|------------3----------|
-------1----------------|-------1--0----1--3-----|--1--------------1-----|
-------0--------0----0--|--2---------------------|-------0------------2--|
----------------2-------|-------3----------------|-------2---------------|
--3-------3--0----------|------------------------|--3---------0----------|
------------------------|--1-------3----------3--|-----------------------|


  Q    E  Q    E  Q       Q    E  E  Q    Q       Q    E  E  Q    E  E   
--1----3--1----0-------|-------3-----1----0----|------------------------|
--3----5--3----1--3----|------------------1----|--3----1-----0----1-----|
----------0------------|--0-------0------------|--0---------------2--0--|
--0--------------------|--2--------------------|--2-------2-------------|
-----------------------|--3--------------------|--0---------------------|
------------------3----|-----------------------|------------------------|


  Q    E  E  Q    Q       Q    E  E  Q    Q       Q    E  E  Q    E  E   
------------------1----|--0--------------------|-------0----------------|
-------------1---------|-------3-----1----3----|-------1-----1----------|
-------2----------2----|-----------------------|-------0-----0-------0--|
--3---------------3----|----------0------------|-------2-----2----------|
----------3------------|-----------------------|--3-------3--0----0-----|
--1--------------------|--3----------3----3----|------------------------|


  Q    E  Q    E  Q       Q    E  Q    E  Q       E  E  Q    Q    Q     
-----------------------|-------3---------------|--------0----1----3----|
-------1--0----1--3----|--1-------3----1--0----|--1---------------1----|
--2--------------------|----------0-------0----|--0-----0----0---------|
--3----3---------------|--2--------------------|--2----------0----2----|
-----------------------|--3--------------------|--3-----3--------------|
--1-------3-------3----|----------3-------3----|-----------------------|


  Q    E  E  E  E  Q       E  E  E  E  Q    E  E     Q    E  E  E  E  Q     
--5----5--5--L----------|-----5--7--8--7----5-----|--3----3--3--L----------|
----------------1-------|-------------------------|------------------------|
-------------------2----|-------------------0-----|------------------------|
----------3-------------|--3--------3----------3--|-------------------2----|
------------------------|-------------------------|----------------2-------|
--1---------------------|-------------------------|--0-------3-------------|


  E  E  E  E  Q    Q       Q    E  E  E  E  Q       E  E  E  E  Q    Q     
-----3--5--7--5---------|--1----1--1--L----------|-----1--3--5--3----1----|
-------------------8----|-------------------3----|------------------------|
--0---------------------|----------2-----2--2----|-----------2------------|
-----------7-------7----|--0---------------------|--0---------------------|
--0---------------------|------------------------|-------------------0----|
------------------------|------------------------|------------------------|


  E  E  E  E  E  E  E  E     E  E  Q    Q    Q       Q    E  E  E  E  Q     
--0-----------1-----------|--3-----0----1----3----|--5----5--5--L----------|
--------1-----------3-----|--1---------------1----|----------------1-------|
-----0-----0-----2-----2--|--0-----0----0---------|-------------------2----|
--------------0-----------|-------------0----2----|----------3-------------|
--3-----------------------|--3-----3--------------|------------------------|
--------------------------|-----------------------|--1---------------------|


  E  E  E  E  Q    E  E     Q    E  E  E  E  Q       E  E  E  E  Q    Q     
-----5--7--8--7----5-----|--3----3--3--L----------|-----3--5--7--5---------|
-------------------------|------------------------|-------------------8----|
-------------------0-----|------------------------|--0---------------------|
--3--------3----------3--|-------------------2----|-----------7-------7----|
-------------------------|----------------2-------|--0---------------------|
-------------------------|--0-------3-------------|------------------------|


                                                    ^                      
  Q    E  E  E  E  Q       E  E  E  E  Q    Q       E  E  E  Q    E  Q     
--2----2--2--L----------|-----2--3--5--3----2----|--3---------------------|
-------------------3----|--------------3---------|--3--3--1---------------|
----------2-----2--2----|-----------2------------|--0--------0------------|
--0---------------------|--0----------------0----|----------------0-------|
------------------------|------------------------|-------------------3----|
------------------------|------------------------|--3---------------------|


  Q    E  Q    E  Q       Q    E  E  Q    Q       Q    E  E  Q    E  E   
-----------------------|-------3-----1----0----|------------------------|
-----------------------|------------------1----|--3----1-----0----1-----|
--0--------------------|--0-------0------------|------------------2--0--|
----------0----2--3----|--2--------------------|----------2-------------|
-------3---------------|--3--------------------|--0---------------------|
--3---------------3----|-----------------------|------------------------|


  Q    E  E  Q    Q       Q    E  E  Q    Q       Q    E  E  E  Q    E   
------------------1----|--0--------------------|-------0----------------|
-------------1---------|-------3-----1----3----|-------1----------------|
-------2----------2----|-----------------------|-------0--------0----0--|
--3---------------3----|----------0------------|----------------2-------|
----------3------------|-----------------------|--3-------3--0----------|
--1--------------------|--3----------3----3----|------------------------|


  Q    E  Q    E  E  E     Q    Q    Q    E  E     Q    E  Q    E  Q     
------------------------|------------3----------|--1----3--1----0-------|
-------1--0----1--3-----|--1--------------1-----|--3----5--3----1--3----|
--2---------------------|-------0------------2--|----------0------------|
-------3----------------|-------2---------------|--0--------------------|
------------------------|--3---------0----------|-----------------------|
--1-------3----------3--|-----------------------|------------------3----|


  Q    E  E  Q    Q       Q    E  E  Q    E  E     Q    E  E  Q    Q     
-------3-----1----0----|------------------------|------------------1----|
------------------1----|--3----1-----0----1-----|-------------1---------|
--0-------0------------|--0---------------2--0--|-------2----------2----|
--2--------------------|--2-------2-------------|--3---------------3----|
--3--------------------|--0---------------------|----------3------------|
-----------------------|------------------------|--1--------------------|


  Q    E  E  Q    Q       Q    E  E  Q    E  E     Q    E  Q    E  Q     
--0--------------------|-------0----------------|-----------------------|
-------3-----1----3----|-------1-----1----------|-------1--0----1--3----|
-----------------------|-------0-----0-------0--|--2--------------------|
----------0------------|-------2-----2----------|--3----3---------------|
-----------------------|--3-------3--0----0-----|-----------------------|
--3----------3----3----|------------------------|--1-------3-------3----|


  Q.     Q    E  E  E     E  E  Q    Q    Q       Q    E  E  E  E  Q     
-----------------------|--------0----1----3----|--5----5--5--L----------|
--1-----------------0--|--1---------------1----|----------------1-------|
--------------0--------|--0-----0----0---------|-------------------2----|
---------2-------------|--2----------0----2----|----------3-------------|
--3------3-------------|--3-----3--------------|------------------------|
-----------------3-----|-----------------------|--1---------------------|


  E  E  E  E  Q    E  E     Q    E  E  E  E  Q       E  E  E  E  Q    Q     
-----5--7--8--7----5-----|--3----3--3--L----------|-----3--5--7--5---------|
-------------------------|------------------------|-------------------8----|
-------------------0-----|------------------------|--0---------------------|
--3--------3----------3--|-------------------2----|-----------7-------7----|
-------------------------|----------------2-------|--0---------------------|
-------------------------|--0-------3-------------|------------------------|


  Q    E  E  E  E  Q       E  E  E  E  Q    Q     
--1----1--1--L----------|-----1--3--5--3----1----|
-------------------3----|------------------------|
----------2-----2--2----|-----------2------------|
--0---------------------|--0---------------------|
------------------------|-------------------0----|
------------------------|------------------------|


  |----3----|    |----3----|                             
  Q    Q    Q    Q    Q    Q       E  E  Q    Q    Q     
--0--------------1--------------|--3-----0----1----3----|
------------1--------------3----|--1---------------1----|
-------0--------------2---------|--0-----0----0---------|
-----------------0--------------|-------------0----2----|
--3-----------------------------|--3-----3--------------|
--------------------------------|-----------------------|


  Q    E  E  E  E  Q       E  E  E  E  Q    E  E     Q    E  E  E  E  Q     
--5----5--5--L----------|-----5--7--8--7----5-----|--3----3--3--L----------|
----------------1-------|-------------------------|------------------------|
-------------------2----|-------------------0-----|------------------------|
----------3-------------|--3--------3----------3--|-------------------2----|
------------------------|-------------------------|----------------2-------|
--1---------------------|-------------------------|--0-------3-------------|


  E  E  E  E  Q    Q       Q    E  E  E  E  Q       E  E  E  E  Q    Q     
-----3--5--7--5---------|--2----2--2--L----------|-----2--3--5--3----2----|
-------------------8----|-------------------3----|--------------3---------|
--0---------------------|----------2-----2--2----|-----------2------------|
-----------7-------7----|--0---------------------|--0----------------0----|
--0---------------------|------------------------|------------------------|
------------------------|------------------------|------------------------|


  ^                                                      
  |----3----|    |----3----|                             
  Q    Q    Q    Q    Q    Q       Q    E  Q    E  Q     
--3-----------------------------|-----------------------|
--3----3----1-------------------|-----------------------|
--0--------------0--------------|--0--------------------|
----------------------0---------|----------0----2--3----|
---------------------------3----|-------3---------------|
--3-----------------------------|--3-------1-------3----|


  Q    E  E  Q    Q       Q    E  E  Q    E  E     Q    E  E  Q    Q     
-------3-----1----0----|------------------------|------------------1----|
------------------1----|--3----1-----0----1-----|-------------1---------|
--0-------0------------|------------------2--0--|-------2----------2----|
--2--------------------|----------2-------------|--3---------------3----|
--3--------------------|--0---------------------|----------3------------|
-----------------------|------------------------|--1--------------------|


  Q    E  E  Q    Q       Q    E  E  E  Q    E     Q    E  Q    E  E  E   
--0--------------------|-------0----------------|------------------------|
-------3-----1----3----|-------1----------------|-------1--0----1--3-----|
-----------------------|-------0--------0----0--|--2---------------------|
----------0------------|----------------2-------|-------3----------------|
-----------------------|--3-------3--0----------|------------------------|
--3----------3----3----|------------------------|--1-------3----------3--|


  Q    Q    Q    E  E     Q    E  Q    E  Q       Q    E  E  Q    Q     
------------3----------|--1----3--1----0-------|-------3-----1----0----|
--1--------------1-----|--3----5--3----1--3----|------------------1----|
-------0------------2--|----------0------------|--0-------0------------|
-------2---------------|--0--------------------|--2--------------------|
--3---------0----------|-----------------------|--3--------------------|
-----------------------|------------------3----|-----------------------|


  Q    E  E  Q    E  E     Q    E  E  Q    Q       Q    E  E  Q    Q     
------------------------|------------------1----|--0--------------------|
--3----1-----0----1-----|-------------1---------|-------3-----1----3----|
--0---------------2--0--|-------2----------2----|-----------------------|
--2-------2-------------|--3---------------3----|----------0------------|
--0---------------------|----------3------------|-----------------------|
------------------------|--1--------------------|--3----------3----3----|


  Q    E  E  Q    E  E     Q    E  Q    E  Q       Q    E  E  E  Q    E   
-------0----------------|-----------------------|------------------------|
-------1-----1----------|-------1--0----1--3----|--1---------------------|
-------0-----0-------0--|--2--------------------|------------------------|
-------2-----2----------|--3----3---------------|-------2--------2-------|
--3-------3--0----0-----|-----------------------|--3-------3--0-------0--|
------------------------|--1-------3-------3----|------------------------|


  Q    E  Q    E  Q       Q    E  E  Q    E  E     Q    E  Q    E  Q     
-----------------------|-------0----------------|-----------------------|
-----------------------|-------1-----1----------|-------1--0----1--3----|
-------0---------------|-------0-----0-------0--|--2--------------------|
--3-------3----2--0----|-------2-----2----------|--3----3---------------|
-----------------------|--3-------3--0----0-----|-----------------------|
--1-------3-------3----|------------------------|--1-------3-------3----|


  Q    E  E  E  Q.        Q    E  Q    E  Q       Q    E  E  Q    E  E   
-----------------------|-----------------------|-------0----------------|
-----------------------|-----------------------|-------1-----1----------|
-----------------------|-----------------------|-------0-----0-------0--|
-------2---------------|------------------0----|-------2-----2----------|
--3-------3-----3------|--0-------2------------|--3-------3--0----0-----|
-------------5---------|--1----1--3----3-------|------------------------|


                           ^           ^                      
  Q    E  E  E  E  Q       E  E  E  E  Q                      
------------------------|--------------8----|-------|-------||
-------1--0-----1--3----|--1--------1--5----|-------|-------||
--2---------------------|--0-----0-----5----|-------|-------||
--3-------0-------------|--2--2-------------|-------|-------||
------------------------|--3----------------|-------|-------||
--1-------3--L----------|-------------------|-------|-------||


Duration Legend
---------------
W - whole
H - half
Q - quarter
E - 8th
S - 16th
T - 32nd
X - 64th
. - note dotted
|-n-|  - n-tuplets


Tablature Legend
----------------
L - tied note
x - dead note
g - grace note
(n) - ghost note
> - accentuded note
NH - natural harmonic
AH - artificial harmonic
TH - tapped harmonic
SH - semi harmonic
PH - pitch harmonic
h - hammer on
p - pull off
b - bend
S - shift slide
s - legato slide
/ -  slide into from below or out of upwards
\ -  slide into from above or out of downwards
~ - vibrato
W - wide vibrato
tr - trill
TP - tremolo picking
T - tapping
S - slap
P - pop
< - fade in
^ - brush up
v - brush down
Login or Register to remove this ad.