Ads

Freedom Planet Theme (Freedom Planet) Bass/Guitar Tab

Submitted: Aug 28, 2016 by wolfrain64

5
Average: 5 (1 vote)
Download | Listen
Game: Freedom Planet
Composer(s): Leila Wilson, Stephen DiDuro, Shane Ellis
Style: 2 or more instruments, Transcription

Click here for a video example.

AutoScroll: Slow | Medium | Fast
Song: Freedom Planet Theme                               
Game: Freedom Planet
Original Composer: Leila Wilson, Stephen DiDuro, Shane Ellis
Tabber: Wolfrain64
Date: 27-8-2016

Intro                                     
Main lead
      T  T     E.   S  S  S  S  E   E   E  E    T  T     E.   S  S  S  S  E   E   E   E   T  T  
E||-------|-----------------------------------------|-----------------------------------------|
B||-------|-------------------13--15----------------|-------------------13--------------------|
G||-12-14-|--15---12-12-14-15---------14--L~-----12-|--14---------12-14-----15--14--15--12-14-|
D||-------|-----------------------------------15----|-------15-15-----------------------------|
A||-------|-----------------------------------------|-----------------------------------------|
E||-------|-----------------------------------------|-----------------------------------------|

Rhythm guitar
     S T T S T T S S S S S S S S S S S S   S T T S T T S S S  S S  S S  S S  S S S 
E||--------------------------------------|------------------------------------------|
B||--------------------------------------|------------------------------------------|
G||--8-----8-----8-7---5---7---5---7---5-|--7-----7-----7-5---12---12---10---12-----|
D||--8-8-8-8-8-8-8-8---5---5---5---5---5-|--7-7-7-7-7-7-7-7---12---12---12---12-----|
A||--6-6-6-6-6-6-6-6---3---3---3---6---6-|--5-5-5-5-5-5-5-5---10---10---10---10-----|
E||--------------------------------------|------------------------------------------|


Verse
Main lead
   E   S  S  S  S  S  E   E   E.   S  S     S  S S  E   S S S  E.   E.   E    
----------------------------------------|------------------------------------|
----------------------------------------|---------------------13--------13~--|
--12~-------12-14-15-14--12--15---14-15-|--14-12-------------------15--------|
---------12-----------------------------|----------15~-----------------------|
----------------------------------------|------------------------------------|
----------------------------------------|------------------------------------|

   E.   E.   S S  S  S S  E  S  E      E  E   S S S S  S  S S  E  S  S S  
-----------------------------------|-------------------------------------|
-----------------------------------|-------------------------------------|
--12---15~-------14-12---------12--|------------------12-----------------|
-------------------------15--------|--12--L~-------------12---15--L~-----|
-----------------------------------|-------------------------------------|
-----------------------------------|-------------------------------------|

   E   S  S  S  S  S  E   E   E.   S  S     S  S S  E   S  E   E.   E.   E   
----------------------------------------|-----------------13--11---10~------|
-------------------------15-------------|-----------------------------------|
--12~-------12-14-15-14------15---14-15-|--14-------------------------------|
---------12-----------------------------|-----15----------------------------|
----------------------------------------|----------15~----------------------|
----------------------------------------|-----------------------------------|

   E.   E.   S S  S  S S  E  S  E      E  E   S S S S  S  S  S  E  S  S S       
-----------------------------------|--------------------------------------|
-------15~-------13------------13--|---------------------13---------------|
--12----------------12---14--------|--15--L~----------15----15-14--L~-----|
-----------------------------------|--------------------------------------|
-----------------------------------|--------------------------------------|
-----------------------------------|--------------------------------------|

2nd lead (enters at the 5th measure of verse) 
      
    E   S  S  S  S  S  E   E   E.   S  S    S  S S  E  S  E   E.   E.   E  
|----------------------------------------|----------------------------------|
|----------------------------------------|----------------15--13---11~------|
|------------------12-----15--12------12-|----------------------------------|
|--12~-------12-15----15-----------15----|--15------------------------------|
|---------13-----------------------------|-----15---12----------------------|
|----------------------------------------|----------------------------------|

    E.   E.   S S  S  S S  E  S  E     E  E   S S S S  S  S  S  E  S  S S 
-----------------------------------|--------------------------------------|
-----------------------------------|--------------------------------------|
-------15~-------12------------14--|--12--L~-------------15---------------|
--12----------------12---15--------|------------------17----17-15--L~-----|
-----------------------------------|--------------------------------------|
-----------------------------------|--------------------------------------|

Rhythm guitar

S T T S T T S T T S T T S T T S T T S T T S T T    S T T S T T S T T S T T S T T S T T S T T S T T  
------------------------------------------------|-------------------------------------------------|
------------------------------------------------|-------------------------------------------------|
------------------------------------------------|--------------------------3----------------------|
5-----------------------------------------------|--3-----------------------3-3-3-3-3-3-3-3-3-3-3-3|
5-5-5-5-5-5-5-5-5-5-5-5-5-5-5-5-5-5-5-5-5-5-5-5-|--3-3-3-3-3-3-3-3-3-3-3-3-1-1-1-1-1-1-1-1-1-1-1-1|
3-3-3-3-3-3-3-3-3-3-3-3-3-3-3-3-3-3-3-3-3-3-3-3-|--1-1-1-1-1-1-1-1-1-1-1-1------------------------|

  S T T S T T S T T S T T S T T S T T S T T S T T  S T T S T T S T T S T T S S S E  T T S T T  
--------------------------------------------------|---------------------------------------------|
--------------------------------------------------|---------------------------------------------|
--------------------------------------------------|--3-----------------------8-7---8------------|
--5-----------------------3-----------------------|--3-3-3-3-3-3-3-3-3-3-3-3-8-8---8--8-8-8-8-8-|
--5-5-5-5-5-5-5-5-5-5-5-5-3-3-3-3-3-3-3-3-3-3-3-3-|--1-1-1-1-1-1-1-1-1-1-1-1-6-6---6--6-6-6-6-6-|
--3-3-3-3-3-3-3-3-3-3-3-3-1-1-1-1-1-1-1-1-1-1-1-1-|---------------------------------------------|
                                                     
                                                   Rhythm guitar 4th measure (at 2nd interation)
                                                     S T T S T T S T T S T T S S S E  T T S T T 
                                                  |---------------------------------------------|
                                                  |---------------------------------------------|
                                                  |--3-----------------------8-7---3------------|
                                                  |--3-3-3-3-3-3-3-3-3-3-3-3-8-8---3--3-3-3-3-3-|
                                                  |--1-1-1-1-1-1-1-1-1-1-1-1-6-6---5--5-5-5-5-5-|
                                                  |---------------------------------------------|


Chorus
Rhythm
    Q    Q    Q     Q        Q    Q     Q     Q       Q    Q    S T T S T T S T T S T T  
------------------------|-------------------------|-------------------------------------|
------------------------|-------------------------|-------------------------------------|
---8----7----7----12----|---8----7----12----12----|---8----7----------------------------|
---8----7----7----12----|---8----7----10-----9----|---8----7----5-----------------------|
--10----8----5----10----|--10----8----10----10----|--10----8----5-5-5-5-5-5-5-5-5-5-5-5-|
------------------------|-------------------------|-------------3-3-3-3-3-3-3-3-3-3-3-3-|

Main lead
       E.  T T  E.  T T E.  T  T E.  T T    E.  T T  E.  T  T H        H         H        H            
|------------------------------------|-----------------------------|---------------------------|
|----------------------------8-------|--------------------8--------|--L~--------8--------L~----|
|--8---7-8-10---8-7-7---8-10-----8-7-|--8---7-8-10---8-10----------|---------------------------|
|------------------------------------|-----------------------------|---------------------------|
|------------------------------------|-----------------------------|---------------------------|
|------------------------------------|-----------------------------|---------------------------|

2nd lead                                                    T  T H           H         H        H                         
|------------------------------------|-------------------8--------|--L~--------7--------L~-----|
|------------------------------------|--------------8-10----------|----------------------------|
|------------------------------------|----------------------------|----------------------------|
|------------------------------------|----------------------------|----------------------------|
|------------------------------------|----------------------------|----------------------------|
|------------------------------------|----------------------------|----------------------------|


Guitar Solo
    S   S  S  E   E    T   T   S. S. E   E.       S. S. S  S. S. S  E.    E  E.   
|--13b-13-10----------13h-15p-13--------------|--13-------------------------------|
|------------11---L~-------------16-15---L~---|-----16-15-16-15-13-13~---15--L~---|
|---------------------------------------------|-----------------------------------|
|---------------------------------------------|-----------------------------------|
|---------------------------------------------|-----------------------------------|
|---------------------------------------------|-----------------------------------|

   E  E    T  T  T  T  T  T  T  T  T  T  T  T  T  T  T  T  T  T  T  T  T  T  T  
-------------------------------13-15-------13-------15-------13-------13----------|
----------------------------15-------15-------13-------13-------13----------15----|
--12--L~--------------12-15-------------12-------12-------12-------12----12----12-|
----------------12-15-------------------------------------------------------------|
----------13-15-------------------------------------------------------------------|
----------------------------------------------------------------------------------|

   E.   T   T   Q     S.  S. S  E  E       Q    E.    T  T  S. S. E.    S  S  
---------------------------------------|--15----L~---17-18-17----------------|
--13---15h-16p-15----16b-16-15---------|----------------------18-------------|
-------------------------------12--L~--|-------------------------17~---15-14-|
---------------------------------------|-------------------------------------|
---------------------------------------|-------------------------------------|
---------------------------------------|-------------------------------------|

   S. S. E  S   S  X   T. E.   E  E.       E.   E   E.    E.   E   E.    
---------------------------------------|-----------------13-------------|
--------18--L~-16-16h-18-16---15--L~---|--13---15---L~--------15---L~---|
--14-15--------------------------------|--------------------------------|
---------------------------------------|--------------------------------|
---------------------------------------|--------------------------------|
---------------------------------------|--------------------------------|

   Q    Q      T  T  T  T  T  T  E    S    S  S     H        H               
--15----L~----18-------17-------18b--18pb-18-17-|--15--------L~--------|
-----------------18-------18--------------------|----------------------|
--------------------15-------15-----------------|----------------------|
------------------------------------------------|----------------------|
------------------------------------------------|----------------------|
------------------------------------------------|----------------------|


Last part (Intro but 2 tones up)
Main lead
   E.   S  S  S  S  E   E   E  E    T  T     E.   S  S  S  S  E   E   E   E   T  T  
-----------------------14----------------|-------------------12--------------------|
--15---12-12-14-15-17------14--L~-----12-|--14---------12-14-----15--14--15--12-14-|
-----------------------------------14----|-------14-14-----------------------------|
-----------------------------------------|-----------------------------------------|
-----------------------------------------|-----------------------------------------|
-----------------------------------------|-----------------------------------------|

Rhythm
  E  E  S S S E  S E  S S S S    E  E  S S S E  S E  S S S S  
------------------------------|------------------------------||
------------------------------|------------------------------||
------------------------------|--------------4--4-4--4-4-4-4-||
--5--5--5-5-5-7--7-7--7-7-7-7-|--4--4--4-4-4-4--4-4--4-4-4-4-||
--5--5--5-5-5-7--7-7--7-7-7-7-|--4--4--4-4-4-2--2-2--2-2-2-2-||
--3--3--3-3-3-5--5-5--5-5-5-5-|--2--2--2-2-2-----------------||


2nd Guitar Solo
   S   S  S  E  E    T  T  S. S. E  E    T  T     S. S. E   S  E   E.   T  T  S. S. S 
--17b-17-14-----------------------------------|-------------------15---17-15-14-------|
------------15--L~--14-15-14-15-17--L~--14-15-|--14-15-17--15-17----------------17-14-|
----------------------------------------------|---------------------------------------|
----------------------------------------------|---------------------------------------|
----------------------------------------------|---------------------------------------|
----------------------------------------------|---------------------------------------|

    Q    Q      S. S. S  S. S. S    H         Q.      E    
--------------15-14-15-17-15-17-|--17b--------L~------L--||
--------------------------------|------------------------||
--16----L~----------------------|------------------------||
--------------------------------|------------------------||
--------------------------------|------------------------||
--------------------------------|------------------------||

2nd lead (enters at 3rd measure of 2nd guitar solo)

             Q    Q      S. S. S  S. S.       Q.      S           
-----------------------14----14-|---------------------------||
--------------17-15-17----17----|--15b--------L~------L-----||
--12----L~----------------------|---------------------------||
--------------------------------|---------------------------||
--------------------------------|---------------------------||
--------------------------------|---------------------------||


Bass
             S T T S T T S S S E  S S S S S S S  
G||-------|-------------------------------------|
D||-------|-----------------------7-5-7---5-----|
A||-------|--6-6-6-6-6-6-6-5-6-8--------8---8-6-|
E||-------|-------------------------------------|


  S T T S T T S S S E  S E  S S S S    S T T S T T S S S E  S S S S S S S  
------------------------------------|-------------------------------------|
----------------3-------------7-5---|-----------------------7-5-7---5-----|
--5-5-5-5-5-5-5---3-1--1-1--------8-|--6-6-6-6-6-6-6-5-6-8--------8---8-6-|
----------------------------6-------|-------------------------------------|


  S T T S T T S S S E  S E  S S S S    S T T S T T S S S E  S S S S S S S  
------------------------------------|-------------------------------------|
----------------3-------------7-5---|-----------------------7-5-7---5-----|
--5-5-5-5-5-5-5---3-1--1-1--------8-|--6-6-6-6-6-6-6-5-6-8--------8---8-6-|
----------------------------6-------|-------------------------------------|


  S T T S T T S S S E  S E  S S S S    S T T S T T S S S E  S S S S S S S  
------------------------------------|-------------------------------------|
----------------3-------------7-5---|-----------------------7-5-7---5-----|
--5-5-5-5-5-5-5---3-1--1-1--1-----8-|--6-6-6-6-6-6-6-5-6-8--------8---8-6-|
------------------------------------|-------------------------------------|


  S T T S T T S S S E  S E  S S S S    S S S S S S S S S S S S S S S S  
------------------------------------|----------------------------------|
----------------3-------------7-5---|--5-----------------------------1-|
--5-5-5-5-5-5-5---3-1--1-1--1-----8-|------------5-3-------------5-3---|
------------------------------------|----3-3-3-3-----6-3-3-3-3-3-------|


  S S S S S S S S S S S S S S S S    S S S S S S S S S S S S S S S S  
------------2-0-------------------|----------------------------------|
--3-3-3-3-3-------------------3---|----------------------------------|
----------------3-1-1-1-1-1-1---1-|------------3-5---------------0-3-|
----------------------------------|--3-3-3-3-3-----6-1-1-1-1-1-1-----|


  S S S S S S S S S S S S S S S S    S S S S S S S S S S S S S S S S  
----------------------------2-0---|----------------------------------|
--------------3---1-1---1-------3-|--5-----------------------------1-|
--1-1-1-1-1-1---1-----------------|------------5-3-------------5-3---|
----------------------------------|----3-3-3-3-----6-3-3-3-3-3-------|


  S S S S S S S S S S S S S S S S    S S S S S S S S S S S S S S S S  
------------2-0-------------------|----------------------------------|
--3-3-3-3-3-------------------3---|----------------------------------|
----------------3-1-1-1-1-1-1---1-|------------3-5---------------0-3-|
----------------------------------|--3-3-3-3-3-----6-1-1-1-1-1-1-----|


  S S S S S S S S S S S S S S S S    E  E  E  E  E  E  E  E   
----------------------------------|--------------------------|
--------------3---1-1---0---7-5---|--------------------5--5--|
--1-1-1-1-1-1---1---------------8-|--6--6--5--5--5--5--------|
----------------------------------|--------------------------|


  E  E  E  E  E  E  E  E     E  E  E  E  E  E  E  E   
--------------------------|--------------------------|
--------------5--5--------|--------------------5--5--|
--6--6--5--5--------------|--6--6--5--5--5--5--------|
--------------------3--3--|--------------------------|


  E  E  E  E  E  E  E  E     E  E  E  E  E  E  E  E  S S S S S S S S  
--------------------------|------------------------------------------|
--------------------------|----------------------------5---5---5-3-0-|
--6--6--5--5--------------|------------------------------------------|
--------------3--3--3--3--|--3--3--3--3--3--3--3--3--3---3---3-------|


  S S S S S S S S S S S S S S S S    S S S S S S S S S S S S S S S S  
----------------------------------|------------2-0-------------------|
--5-----------------------------1-|--3-3-3-3-3-------------------3---|
------------5-3-------------5-3---|----------------3-1-1-1-1-1-1---1-|
----3-3-3-3-----6-3-3-3-3-3-------|----------------------------------|


  S S S S S S S S S S S S S S S S    S S S S S S S S S S S S S S S S  
----------------------------------|----------------------------2-0---|
----------------------------------|--------------3---1-1---1-------3-|
------------3-5---------------0-3-|--1-1-1-1-1-1---1-----------------|
--3-3-3-3-3-----6-1-1-1-1-1-1-----|----------------------------------|


  S S S S S S S S S S S S S S S S    S S S S S S S S S S S S S S S S  
----------------------------------|------------2-0-------------------|
--5-----------------------------1-|--3-3-3-3-3-------------------3---|
------------5-3-------------5-3---|----------------3-1-1-1-1-1-1---1-|
----3-3-3-3-----6-3-3-3-3-3-------|----------------------------------|


  S S S S S S S S S S S S S S S S    S S S S S S S S S S S S S S S S  
----------------------------------|----------------------------2-0---|
----------------------------------|--------------3---1-1---0-------3-|
------------3-5---------------0-3-|--1-1-1-1-1-1---1-----------------|
--3-3-3-3-3-----6-1-1-1-1-1-1-----|----------------------------------|


  S S S S Q    S S S S Q       S S S S Q    S S S S Q     
----------------------------|----------------------------|
-----------------------5----|---------------5-5-5-5------|
--6-6-6-6-5----5-5-5-5------|--6-6-6-6-5-----------------|
----------------------------|-----------------------3----|


  S S S S Q    S S S S Q       E  E  E  E  E  E  E  E   
----------------------------|--------------------------|
-----------------------5----|--------------------------|
--6-6-6-6-5----5-5-5-5------|--6--6--5--5--------------|
----------------------------|--------------3--3--3--3--|


  E  E  E  E  E  E  E  E  S S S S S S S S    S S S S S S S S S S S S S S S S  
------------------------------------------|----------------------------------|
----------------------------5---5---5-3-0-|--5-----------------------------1-|
------------------------------------------|------------5-3-------------5-3---|
--3--3--3--3--3--3--3--3--3---3---3-------|----3-3-3-3-----6-3-3-3-3-3-------|


  S S S S S S S S S S S S S S S S    S S S S S S S S S S S S S S S S  
------------2-0-------------------|----------------------------------|
--3-3-3-3-3-------------------3---|----------------------------------|
----------------3-1-1-1-1-1-1---1-|------------3-5---------------0-3-|
----------------------------------|--3-3-3-3-3-----6-1-1-1-1-1-1-----|


  S S S S S S S S S S S S S S S S    S S S S S S S S S S S S S S S S  
----------------------------2-0---|----------------------------------|
--------------3---1-1---1-------3-|--5-----------------------------1-|
--1-1-1-1-1-1---1-----------------|------------5-3-------------5-3---|
----------------------------------|----3-3-3-3-----6-3-3-3-3-3-------|


  S S S S S S S S S S S S S S S S    S S S S S S S S S S S S S S S S  
------------2-0-------------------|----------------------------------|
--3-3-3-3-3-------------------3---|----------------------------------|
----------------3-1-1-1-1-1-1---1-|------------3-5---------------0-3-|
----------------------------------|--3-3-3-3-3-----6-1-1-1-1-1-1-----|


  S S S S S S S S S S S S S S S S    E  E  E  E  E  E  E  E   
----------------------------2-0---|--------------------------|
--------------3---1-1---0-------3-|--------------------------|
--1-1-1-1-1-1---1-----------------|--------------------------|
----------------------------------|--3--3--3--3--3--3--3--3--|


  E  E  E  E  E  E  E  E                    H        Q    E   E    
--------------------------|----|----|----|------------------------|
--------------------------|----|----|----|------------------------|
--------------------------|----|----|----|-------------------12\--|
--3--3--3--3--3--3--3--3--|----|----|----|------------------------|


  S T T S T T S S S E  S S S S S S S    S T T S T T S S S E  S E  S S S S  
-------------------------------------|------------------------------------|
-----------------------7-5-7---5-----|----------------3-------------7-5---|
--6-6-6-6-6-6-6-5-6-8--------8---8-6-|--5-5-5-5-5-5-5---3-1--1-1--------8-|
-------------------------------------|----------------------------6-------|


  S T T S T T S S S E  S S S S S S S    S T T S T T S S S E  S E  S S S S  
-------------------------------------|------------------------------------|
-----------------------7-5-7---5-----|----------------3-------------7-5---|
--6-6-6-6-6-6-6-5-6-8--------8---8-6-|--5-5-5-5-5-5-5---3-1--1-1--------8-|
-------------------------------------|----------------------------6-------|


   S  T  T  S  T  T  S S  S  E   S S  S  S S  S  S  
---------------------------------------------------|
--------------------------------11-9-11----9-------|
--10-10-10-10-10-10-10-9-10-12----------12---12-10-|
---------------------------------------------------|


  S T T S T T S S S E  S E   S  S S  S  
---------------------------------------|
----------------7--------------11-9----|
--9-9-9-9-9-9-9---7-5--5-5----------12-|
----------------------------10---------|


   S  T  T  S  T  T  S S  S  E   S S  S  S S  S  S  
---------------------------------------------------|
--------------------------------11-9-11----9-------|
--10-10-10-10-10-10-10-9-10-12----------12---12-10-|
---------------------------------------------------|


  S T T S T T S S S E  S E   S  S S  S  
---------------------------------------|
----------------7--------------11-9----|
--9-9-9-9-9-9-9---7-5--5-5----------12-|
----------------------------10---------|


   S  T  T  S  T  T  S S  S  E   S S  S  S S  S  S  
---------------------------------------------------|
--------------------------------11-9-11----9-------|
--10-10-10-10-10-10-10-9-10-12----------12---12-10-|
---------------------------------------------------|


  S T T S T T S S S E  S E   S  S S  S  
---------------------------------------|
----------------7--------------11-9----|
--9-9-9-9-9-9-9---7-5--5-5----------12-|
----------------------------10---------|


   S  T  T  S  T  T  S S  S  E   S S  S  S S  S  S  
---------------------------------------------------|
--------------------------------11-9-11----9-------|
--10-10-10-10-10-10-10-9-10-12----------12---12-10-|
---------------------------------------------------|


  S T T S T T S S S E  S E   S  S S  S  
---------------------------------------|
----------------7--------------11-9----|
--9-9-9-9-9-9-9---7-5--5-5----------12-|
----------------------------10---------|


   S  T  T  S  T  T  S S  S  E   S S  S  S S  S  S  
---------------------------------------------------|
--------------------------------11-9-11----9-------|
--10-10-10-10-10-10-10-9-10-12----------12---12-10-|
---------------------------------------------------|


  S T T S T T S S S E  S E   S  S S  S  
---------------------------------------|
----------------7--------------11-9----|
--9-9-9-9-9-9-9---7-5--5-5----------12-|
----------------------------10---------|


   S  T  T  S  T  T  S S  S  E   S S  S  S S  S  S  
---------------------------------------------------|
--------------------------------11-9-11----9-------|
--10-10-10-10-10-10-10-9-10-12----------12---12-10-|
---------------------------------------------------|


  S T T S T T S S S E  S E   S  S S  S  
---------------------------------------|
----------------7--------------11-9----|
--9-9-9-9-9-9-9---7-5--5-5----------12-|
----------------------------10---------|


   S  T  T  S  T  T  S S  S  E   S S  S  S S  S  S  
---------------------------------------------------|
--------------------------------11-9-11----9-------|
--10-10-10-10-10-10-10-9-10-12----------12---12-10-|
---------------------------------------------------|


  S T T S T T S S S E  S E   S  S S  S  
---------------------------------------|
----------------7--------------11-9----|
--9-9-9-9-9-9-9---7-5--5-5----------12-|
----------------------------10---------|


   S  T  T  S  T  T  S S  S  E   S S  S  S S  S  S  
---------------------------------------------------|
--------------------------------11-9-11----9-------|
--10-10-10-10-10-10-10-9-10-12----------12---12-10-|
---------------------------------------------------|


  S T T S T T S S S E  S E   S  S S  S     W                       
---------------------------------------|--------------------|----||
----------------7--------------11-9----|--------------------|----||
--9-9-9-9-9-9-9---7-5--5-5----------12-|--10----------------|----||
----------------------------10---------|--------------------|----||


Duration Legend
---------------
W - whole
H - half
Q - quarter
E - 8th
S - 16th
T - 32nd
X - 64th
. - note dotted
|-n-|  - n-tuplets


Tablature Legend
----------------
L - tied note
x - dead note
g - grace note
(n) - ghost note
> - accentuded note
NH - natural harmonic
AH - artificial harmonic
TH - tapped harmonic
SH - semi harmonic
PH - pitch harmonic
h - hammer on
p - pull off
b - bend
br - bendRelease
pb - preBend
pbr - preBendRelease
brb - bendReleaseBend
\n/ - tremolo bar dip
\n - tremolo bar dive
-/n - tremolo bar Release up
/n\ - tremolo bar inverted dip
/n - tremolo bar return
-\n - tremolo bar Release down
S - shift slide
s - legato slide
/ -  slide into from below or out of upwards
\ -  slide into from above or out of downwards
~ - vibrato
W - wide vibrato
tr - trill
TP - tremolo picking
T - tapping
S - slap
P - pop
< - fade in
^ - brush up
v - brush down
Login or Register to remove this ad.

1 comment on Freedom Planet Theme

awesome

5

Great tab