The Ballad of Freddy Pharkas (Freddy Pharkas, Frontier Pharmacist) Guitar Tab

Submitted: Jan 16, 2011 by Kabukibear (Last updated: Oct 20, 2012)

5
Average: 5 (6 votes)
Download | Listen
Game: Freddy Pharkas, Frontier Pharmacist
Composer(s): Al Lowe, Josh Mandel, Aubrey Hodges
Style: Arrangement, Fingerstyle, Natural harmonics

Click here for a video example.

AutoScroll: Slow | Medium | Fast
The Ballad of Freddy Pharkas                           
~Freddy Pharkas, Frontier Pharmacist~
Composed by: Al Lowe, Josh Mandel, Aubrey Hodges 
Arranged by: Justin Lincoln
Based on the duet arrangement by: Auriplane ([email protected])

Tuning: EBGDGC (Capo 3)

bpm= 170

     E   E  E  E  E  E   E  E     Q    E  E  E   E  E  E   
E||----------------------------|--------------------------|
B||----------------------------|--0----0------------------|
G||---------0-----0---------0--|-------------2p--0-----0--|
D||--0h--2-----------0h--2-----|--0-----------------2-----|
G||--0---------0---------------|--0-------0---------------|
C||---------------0------------|-------------0------------|


  E   E  E  E  E  E   E  E     Q    Q    Q    Q     
----------------------------|----------------------|
----------------------------|--0----0--------------|
---------0-----0---------0--|------------2---------|
--0h--2-----------0h--2-----|--0----0----4---------|
--0---------0---------------|--0-------------------|
---------------0------------|-----------------2----|


     NH                                                 
     Q    E  E  E  E   E  E     Q    Q    E   E  E  E   
-----------------------------|-------------------------|
--<>12-----------------------|--0----0-----------------|
----------0-----0---------0--|------------2p--0-----0--|
-----0-------------0h--2-----|--0----------------2-----|
-----0-------0---------------|--0----0-----------------|
----------------0------------|------------0------------|


     NH                                                 
     Q    E  E  E  E   E  E     E  E  Q    Q    E   E   
-----------------------------|-------------------------|
-----------------------------|-------------------------|
--<>12----0-----0---------0--|-------------0-----------|
-----0-------------0h--2--0--|-----0--4----0----0h--2--|
-----0-------0---------------|-------------0-----------|
----------------0------------|--0-----2----------------|


    Q    E  E  E  E  E   E     Q    E  E  E   E  E  E   
|---------------------------|--------------------------|
|---------------------------|--0----3------------------|
|*--0----0-----0-----0h--2--|-------4-----2p--0-----0--|
|*----------------0---------|--------------------2-----|
|---0-------0---------------|--0-------0---------------|
|--------------2------------|-------------2------------|


  Q    E  E  E  E  E  E     Q    E  E  E   E  E   E     Q    E  E  E  E  E  E   
-------------------------|--0----3-----2------0------|-------------------------|
--1----1-----1-----3-----|--0----0-------------------|--3----------3--------1--|
--0----0--------0-----0--|-------------2p--0---------|--0----0-----0-----0--2--|
-------------------------|--------------------2p--0--|----------------0--------|
-------------0-----------|-------------0-------------|--0-------0--------------|
--0-------0--------------|--0-------0----------------|-------------2-----------|


  Q    E  E  E   E  E  E     Q    E  E  Q    Q     
--------------------------|-----------------------|
--0-----------------------|--0---------------0----|
-------0-----2p--0-----0--|-------2-----2----2----|
--------------------2-----|-------2----------2----|
--0-------0---------------|--2-------2--2---------|
-------------2------------|-----------------------|


  E   E  E  E  E   E  E   E     Q    E  E  E  E  E   E   
-----------------------------|--------------------------|
------------0----------------|--------------------------|
--2p--0--2-----2p--0---------|--0----0-----0-----0h--2--|
----------------------2p--0--|----------------0---------|
-----------------------------|--0-------0---------------|
--2-------------------2------|-------------2------------|


  Q    E  E  E   E  E  E     Q    Q    Q    E  E     E  E  E   E  E  E  E  E   
--------------------------|-----------------------|--0-----3------2-----0-----|
--0----3------------------|--1----0----1----3-----|-----0---------------------|
-------4-----2p--0-----0--|--2----5----2----0-----|--2-----2p--0-----0--------|
--------------------2-----|-----------------------|---------------4-----4-----|
--0-------0------------0--|------------0-------0--|---------------0-----------|
-------------2------------|--0--------------------|--0---------------------2--|


  Q    E  E  E  E  E  E     Q    E  E  E  E  E   E   
-------------------------|--------------------------|
--3----------3--------1--|--0-----------------------|
--0----0-----0-----0--2--|-------0-----------0h--2--|
----------------0--------|-------0--------0---------|
--0-------0--------------|--0-------0---------------|
-------------2-----------|-------------2------------|


  E  E  E  E  E   E  E   E     Q    Q    H           E   E  Q    Q    E   E   
----------------------------|---------------------|--0------3----------------|
--0-------------------------|---------------------|--------------------------|
--------0-----2p--0---------|--0------------------|---------0----0-----------|
-----0---------------0h--4--|---------------------|--0h--2------------0h--2--|
--0--------0----------------|--0---------0--------|--------------0-----------|
--------------2------2------|-------2-------------|--0-----------------------|


  Q    Q    E  E  E  E     E   E  Q    Q    E   E     Q    Q    E  E  E   E   
------------3--------5--|--0-----------------------|-------------------------|
---------------0--------|---------3----------------|---------------0---------|
--0----0----2-----2--0--|---------0----0-----------|--0----0----2-----2p--0--|
------------------------|--0h--2------------0h--2--|-------------------------|
------------0-----------|--0-----------------------|--0----0----0------------|
--0---------------------|--------------2-----------|-------------------------|


                       ^              ^                              
  H        H           Q    Q    Q    Q       Q    Q    E  E  E  E   
--8--------8--------|--8----7----5----7----|--L---------5-----------|
--------------------|--0--------------0----|--L------------------0--|
--0--------0--------|--0--------------0----|--L---------------0-----|
--------------------|--0-------------------|-------0-------0--------|
--------------------|-----------------0----|--L---------------------|
--0--------0--------|----------------------|------------5-----------|


  Q    E  E  E  E   E  E     E   E  Q    Q    E   E     Q    Q    E  E  E  E   
--3----------0------------|--0------3----------------|------------3--------5--|
-----------------------3--|--------------------------|---------------0--------|
-------0------------------|---------0----0-----------|--0----0----2-----2--0--|
----------3-----0h--2-----|--0h--2------------0h--2--|------------------------|
-------------0------------|--------------0-----------|------------0-----------|
--4-----------------------|--0-----------------------|--0---------------------|


  E   E  Q    Q    E   E     Q    Q    E  E  E   E     H        H         
--0-----------------------|-------------------------|--------------------|
---------3----------------|---------------0---------|--1--------0--------|
---------0----0-----------|--0----0----2-----2p--0--|--0--------0--------|
--0h--2------------0h--2--|-------------------------|--0--------0--------|
--0-----------------------|--0----0----0------------|--------------------|
--------------2-----------|-------------------------|--2--------4--------|


  ^                     1st, 2nd Endings ------------------------------------                                                        
  Q    Q    Q    Q       E   E  E  E  E  E   E  E     Q    E  E  E   E  E  E   
----------------------|----------------------------|--------------------------|
----------------------|----------------------------|--0----0------------------|
--2----0---------0----|---------0-----0---------0--|-------------2p--0-----0--|
--0---------2---------|--0h--2-----------0h--2-----|--0-----------------2-----|
----------------------|--0---------0---------------|--0-------0---------------|
--6-------------------|---------------0------------|-------------0------------|


  E   E  E  E  E  E   E  E     E  E  Q    Q    E   E   3x
----------------------------|--------------------------||
----------------------------|--------------------------||
---------0-----0---------0--|-------------0-----------*||
--0h--2-----------0h--2-----|-----0--4----0----0h--2--*||
--0---------0---------------|-------------0------------||
---------------0------------|--0-----2-----------------||

 3rd Ending ----------------
  E   E  E  E  E  E   E  E     Q    E  E  E   E  E  E   
----------------------------|--------------------------|
----------------------------|--0----0------------------|
---------0-----0---------0--|-------------2p--0-----0--|
--0h--2-----------0h--2-----|--0-----------------2-----|
--0---------0---------------|--0-------0---------------|
---------------0------------|-------------0------------|


  E   E  E  E  E  E   E  E     E  E  Q    H           W                  
----------------------------|----------------------|-------------------||
----------------------------|----------------------|-------------------||
---------0-----0---------0--|-------------0--------|--L----------------||
--0h--2-----------0h--2-----|-----0--4----0--------|--L----------------||
--0---------0---------------|--0----------0--------|--L----------------||
---------------0------------|--------2-------------|-------------------||




Duration Legend
---------------
W - whole
H - half
Q - quarter
E - 8th
S - 16th
T - 32nd
X - 64th
. - note dotted
|-n-|  - n-tuplets


Tablature Legend
----------------
L - tied note
NH - natural harmonic
h - hammer on
p - pull off
^ - brush up
Login or Register to remove this ad.

5 comments on The Ballad of Freddy Pharkas

Yay!!!

5

Yay!!!

Thanks again for all your

Thanks again for all your hard work. Without it, this wouldn't have been possible. :)

This is really lovely :D

5

This is really lovely :D

Its the sound of love

Its the sound of love

Oh man, im in love with this

5

Oh man, im in love with this tab..