Towards light (Fran Bow) Bass/Guitar Tab

Submitted: Feb 28, 2016 by samisito (Last updated: Feb 28, 2016)

0
Download | Listen
Game: Fran Bow
Composer(s): Isak Martinsson
Style: 2 or more instruments, Alternate picking, Transcription

AutoScroll: Slow | Medium | Fast
Song: Towards light (Ending Credits song)
Game: Fran Bow
Composer: Isak J. Martinsson
Tabbed by: samisito
Tabbed at: 02/28/2016


---------------
Song structure
---------------
1x - Intro
4x - Part A
2x - Part B
4x - Part A



/////////////////////////////////////////////////
//                    Intro                    //
/////////////////////////////////////////////////


Electric Guitar (Distortion)
e|-------------------------|-------------------------|-------------------------|-------------------------|
B|-------------------------|-------------------------|-------------------------|-------------------------|
G|-------------------3-----|-2-----------------------|----------------------0--|-------------------------|
D|-------------------------|-------------3-----------|-1-----------------3-----|-------------------------|
A|-3-----------------------|-------------------------|-------------------------|-3-----------------------|
E|-------------------------|-------------------------|-------------------------|-------------------------|

Electric Guitar (Clean)
e|-------------------------|-------------------------|-------------------------|-------------------------|
B|-------------------------|-------------------------|-------------------------|-------------------------|
G|-------------------------|-------------------------|-------------------------|-------------------------|
D|-------------------------|-------------------------|-------------------------|-------------------------|
A|-------------------------|-------------------------|-------------------------|-------------------------|
E|-------------------------|-------------------------|-------------------------|-------------------------|

Bass
G|-------------------------|-------------------------|-------------------------|-------------------------|
D|-------------------------|-------------------------|-------------------------|-------------------------|
A|-3--3--3--3--3--3--3--3--|-3--3--3--3--3--3--3--3--|-3--3--3--3--3--3--3--3--|-3--3--3--3--3--3--3--3--|
E|-------------------------|-------------------------|-------------------------|-------------------------|




Electric Guitar (Distortion)
e|-------------------------|-------------------------|-------------------------|-------------------------|
B|-------------------------|-------------------------|-------------------------|-------------------------|
G|-------------------3-----|-2-----------------------|----------------------0--|-------------------------|
D|-------------------------|-------------3-----------|-1-----------------3-----|-------------------------|
A|-3-----------------------|-------------------------|-------------------------|-3-----------------------|
E|-------------------------|-------------------------|-------------------------|-------------------------|

Electric Guitar (Clean)
e|-------------------18----|-17----------13----------|-11----------------13-15-|-------------------------|
B|-13----------------------|-------------------------|-------------------------|-13----------------------|
G|-------------------------|-------------------------|-------------------------|-------------------------|
D|-------------------------|-------------------------|-------------------------|-------------------------|
A|-------------------------|-------------------------|-------------------------|-------------------------|
E|-------------------------|-------------------------|-------------------------|-------------------------|

Bass
G|-------------------------|-------------------------|-------------------------|-------------------------|
D|-------------------------|-3--3--3--3--3--3--3--3--|-1--1--1--1--1--1--1--1--|-------------------------|
A|-3--3--3--3--3--3--3--3--|-------------------------|-------------------------|-3--3--3--3--3--3--3--3--|
E|-------------------------|-------------------------|-------------------------|-------------------------|




//////////////////////////////////////////////////
//                    Part A                    //
//////////////////////////////////////////////////


Electric Guitar (Distortion)
e|-------------------6--5--|-------------------------|----------------------3--|-------------------------|
B|-------------------------|-6-----------------------|-4-----------------6-----|-------------------------|
G|-5-----------------------|-------------------------|-------------------------|-5-----------------------|
D|-------------------------|-------------------------|-------------------------|-------------------------|
A|-------------------------|-------------------------|-------------------------|-------------------------|
E|-------------------------|-------------------------|-------------------------|-------------------------|

Electric Guitar (Clean)
e|-------11----10----------|-------------------------|-------11----10-11-13----|-------13----11-10-11----|
B|-------------------11----|-10-11-10----10----------|-------------------------|-------------------------|
G|-------------------------|----------12-------------|-------------------------|-------------------------|
D|-------------------------|-------------------------|-------------------------|-------------------------|
A|-------------------------|-------------------------|-------------------------|-------------------------|
E|-------------------------|-------------------------|-------------------------|-------------------------|

Bass
G|-5--5--5--5--5--5--5--5--|-------------------------|-------------------------|-------------------------|
D|-------------------------|-3--3--3--3--3--3--3--3--|-1--1--1--1--1--1--1--1--|-------------------------|
A|-------------------------|-------------------------|-------------------------|-3--3--3--3--3--3--3--3--|
E|-------------------------|-------------------------|-------------------------|-------------------------|




//////////////////////////////////////////////////
//                    Part B                    //
//////////////////////////////////////////////////


Electric Guitar (Distortion)
e|-11----------11----------|-------------11----------|-------------11----------|-------------10----------|
B|----13----13-------------|----13----13-------------|----13----13-------------|----13----------12-------|
G|-------12----------------|-------13----------------|-------10----------------|-------12----------12----|
D|-------------------------|-------------------------|-------------------------|-------------------------|
A|-------------------------|-------------------------|-------------------------|-------------------------|
E|-------------------------|-------------------------|-------------------------|-------------------------|

Electric Guitar (Clean)
e|----------------11-10-11-|----------------11-10-11-|----------------11-10-11-|----------------11-10-11-|
B|-------------------------|-------------------------|-------------------------|-------------------------|
G|-------------------------|-------------------------|-------------------------|-------------------------|
D|-------------------------|-------------------------|-------------------------|-------------------------|
A|-------------------------|-------------------------|-------------------------|-------------------------|
E|-------------------------|-------------------------|-------------------------|-------------------------|

Bass
G|-5--5--5--5--5--5--5--5--|-5--5--5--5--5--5--5--5--|-5--5--5--5--5--5--5--5--|-5--5--5--5--4--4--4--4--|
D|-------------------------|-------------------------|-------------------------|-------------------------|
A|-------------------------|-------------------------|-------------------------|-------------------------|
E|-------------------------|-------------------------|-------------------------|-------------------------|




Electric Guitar (Distortion)
e|-11----------11----------|-------------11----------|-------------11----------|-------------10----------|
B|----13----13-------------|----13----13-------------|----13----13-------------|----13----------12-------|
G|-------12----------------|-------13----------------|-------10----------------|-------12----------12----|
D|-------------------------|-------------------------|-------------------------|-------------------------|
A|-------------------------|-------------------------|-------------------------|-------------------------|
E|-------------------------|-------------------------|-------------------------|-------------------------|

Electric Guitar (Clean)
e|-13----15-------11-10-11-|----------------11-10-11-|----------------11-10-11-|----------------11-10-11-|
B|-------------------------|-------------------------|-------------------------|-------------------------|
G|-------------------------|-------------------------|-------------------------|-------------------------|
D|-------------------------|-------------------------|-------------------------|-------------------------|
A|-------------------------|-------------------------|-------------------------|-------------------------|
E|-------------------------|-------------------------|-------------------------|-------------------------|

Bass
G|-5--5--5--5--5--5--5--5--|-10-10-10-10-10-10-10-10-|-13-13-13-13-13-13-13-13-|-13-13-13-13-12-12-12-12-|
D|-------------------------|-------------------------|-------------------------|-------------------------|
A|-------------------------|-------------------------|-------------------------|-------------------------|
E|-------------------------|-------------------------|-------------------------|-------------------------|

Login or Register to remove this ad.