A little talk (Fran Bow) Guitar Tab

Submitted: Jan 25, 2016 by samisito (Last updated: Feb 27, 2016)

0
Download | Listen
Game: Fran Bow
Composer(s): Isak Martinsson
Style: 2 or more instruments, Fingerstyle, Transcription

AutoScroll: Slow | Medium | Fast
Song: A little talk
Game: Fran Bow
Composer: Isak J. Martinsson
Tabbed by: samisito
Tabbed at: 01/25/2016


Guitar I     - Standard E Tuning (EADGBe)
Guitar II    - Dropped D (DADGBe)



Guitar I
e|-------10----------11----|-------10-----------9----|
B|----11-------------------|----11-------------------|
G|-12-------------12-------|-12-------------12-------|
D|-------------12----------|-------------12----------|
A|-------------------------|-------------------------|
E|-------------------------|-------------------------|

Guitar II
e|-------------------------|-------------------------|
B|-------------------------|-------------------------|
G|-----------0-------------|-----------0-------------|
D|-------------------------|-------------------------|
A|-------------------------|-------------------------|
D|-------------------------|-------------------------|



Guitar I
e|-------10----------11----|----15----13-------10----|-------------------------|
B|----11-------------------|-------------------------|-------------------------|
G|-12-------------12-------|-------------------------|-------------------------|
D|-------------12----------|-------------------------|-------------------------|
A|-------------------------|-------------------------|-------------------------|
E|-------------------------|-------------------------|-------------------------|

Guitar II
e|-------------------------|-------------------------|-------------------------|
B|-------------------------|-----------------3-------|-----------------1-------|
G|-----------0-------------|--------------2----------|--------------2----------|
D|-------------------------|-----------3-------------|-----------3-------------|
A|-------------------------|-------------------------|-------------------------|
D|-------------------------|-------------------------|-------------------------|



Guitar I
e|-------10----------11----|-------10-----------9----|
B|----11-------------------|----11-------------------|
G|-12-------------12-------|-12-------------12-------|
D|-------------12----------|-------------12----------|
A|-------------------------|-------------------------|
E|-------------------------|-------------------------|

Guitar II
e|-------------------------|-------------------------|
B|-------------------------|-------------------------|
G|-----------0-------------|-----------0-------------|
D|-------------------------|-------------------------|
A|-------------------------|-------------------------|
D|-------------------------|-------------------------|



Guitar I
e|-------10----------11----|----15----13-------10----|-------------------------|
B|----11-------------------|-------------------------|-------------------------|
G|-12-------------12-------|-------------------------|-------------------------|
D|-------------12----------|-------------------------|-------------------------|
A|-------------------------|-------------------------|-------------------------|
E|-------------------------|-------------------------|-------------------------|

Guitar II
e|-------------------------|-------------------------|-------------------------|
B|-------------------------|-----------------3-------|-----------------1-------|
G|-----------0-------------|--------------2----------|--------------2----------|
D|-------------------------|-----------3-------------|-----------0-------------|
A|-------------------------|-------------------------|-------------------------|
D|-------------------------|-------------------------|-------------------------|



Guitar I
e|-------------------------|-------------------------|
B|----------13-------------|-------------------------|
G|-------------------12----|-------------------------|
D|-------------------------|-------------------------|
A|-------------------------|-------------------------|
E|-------------------------|-------------------------|

Guitar II
e|-------------------------|-------------------------|
B|-------------------------|-------------------------|
G|-----------------3-------|-------------------------|
D|--------------5----------|-------------------------|
A|-----------6-------------|-------------------------|
D|-------------------------|-------------------------|



Guitar I
e|-10----------------------|-------------------------|
B|-------13-------10-------|-------------------------|
G|-------------------------|-------------------------|
D|-------------------------|-------------------------|
A|-------------------------|-------------------------|
E|-------------------------|-------------------------|

Guitar II
e|-------------------------|-------------------------|
B|--------------3----------|-------------------------|
G|-----------2-------------|-------------------------|
D|--------3----------------|-------------------------|
A|-------------------------|-------------------------|
D|-------------------------|-------------------------|



Guitar I
e|-------------------------|-------------------------|
B|-------------------------|----------------11----10-|
G|-12-------12-------------|-------------------------|
D|-------------------------|-------------------------|
A|-------------------------|-------------------------|
E|-------------------------|-------------------------|

Guitar II
e|-------------------------|-------------------------|
B|-------------------------|-------------------------|
G|--------3----------------|-------------------------|
D|-----5-------------------|-------------------------|
A|--6----------------------|-----------------------5-|
D|-------------------------|-------------------------|



Guitar I
e|-------------------------|-------------------------|
B|-------10----------------|-------------------------|
G|-------------------------|-------------------------|
D|-------------------------|-------------------------|
A|-------------------------|-------------------------|
E|-------------------------|-------------------------|

Guitar II
e|-------------------------|-------------------------|
B|-------------------------|-------------------------|
G|-----2-------------------|-------------------------|
D|--4----------------------|-------------------------|
A|-------------------------|-------------------------|
D|-------------------------|-------------------------|



Guitar I
e|----------10-------------|-------------------------|
B|----11-10----------------|-------------------------|
G|-12-------------12-------|-------------------------|
D|-------------------------|-------------------------|
A|-------------------------|-------------------------|
E|-------------------------|-------------------------|

Guitar II
e|-------------------------|-------------------------|
B|-------------------------|-------------------------|
G|--------------------3----|--------------3----------|
D|-----------------5-----5-|-----------5-------------|
A|--------------5----------|--5-----5----------------|
D|-----------5-------------|-----5-------------------|



Guitar I
e|----------10-------------|-------------------------|
B|----11-10----------------|-------------------------|
G|-12-------------12-------|-------------------------|
D|-------------------------|-------------------------|
A|-------------------------|-------------------------|
E|-------------------------|-------------------------|

Guitar II
e|-------------------------|-------------------------|
B|-------------------------|-------------------------|
G|--------------------2----|--------------2----------|
D|-----------------0-----3-|--0--------0-------------|
A|--------------0----------|--------0----------------|
D|-----------3-------------|-----3-------------------|



Guitar I
e|-------------------------|-------------------------|
B|----11-10-13-------------|-------------------------|
G|-12-------------12-------|-------------------------|
D|-------------------------|-------------------------|
A|-------------------------|-------------------------|
E|-------------------------|-------------------------|

Guitar II
e|-------------------------|-------------------------|
B|-------------------------|-------------------------|
G|-------------------------|-------------------------|
D|-------------------------|-------------------------|
A|-----------------1--3--1-|-----------1--3----------|
D|-----------1--5----------|--5--1--5----------------|



Guitar I
e|-------------------------|-------------------------|
B|----------10-------------|-------------------------|
G|----12----------11-------|----------------------11-|
D|-------------------------|-------------------------|
A|-------------------------|-------------------------|
E|-------------------------|-------------------------|

Guitar II
e|-------------------------|-------------------------|
B|-------------------------|-------------------------|
G|-------------------------|-------------------------|
D|-------------------------|-------------------------|
A|-----------------0--1--0-|-----------0--1----------|
D|-----------0--4----------|--4--0--4----------------|



Guitar I
e|-------------------------|-------------------------|
B|----------11-------------|----------------------11-|
G|----12----------12-------|-------------------------|
D|-------------------------|-------------------------|
A|-------------------------|-------------------------|
E|-------------------------|-------------------------|

Guitar II
e|-------------------------|-------------------------|
B|-------------------------|-------------------------|
G|--------------------3----|--------------3----------|
D|-----------------5-----5-|-----------5-------------|
A|--------------5----------|--5-----5----------------|
D|-----------5-------------|-----5-------------------|



Guitar I
e|-------------------------|-------------------------|
B|----10----13-------------|----------------------11-|
G|----------------12-------|-------------------------|
D|-------------------------|-------------------------|
A|-------------------------|-------------------------|
E|-------------------------|-------------------------|

Guitar II
e|-------------------------|-------------------------|
B|-------------------------|-------------------------|
G|--------------------2----|--------------2----------|
D|-----------------0-----3-|--0--------0-------------|
A|--------------0----------|--------0----------------|
D|-----------3-------------|-----3-------------------|



Guitar I
e|----------10-------------|----------------------10-|
B|----10-------------------|-------------------------|
G|----------------12-------|-------------------------|
D|-------------------------|-------------------------|
A|-------------------------|-------------------------|
E|-------------------------|-------------------------|

Guitar II
e|-------------------------|-------------------------|
B|-------------------------|-------------------------|
G|-------------------------|-------------------------|
D|-------------------------|-------------------------|
A|-----------------1--3--1-|-----------1--3----------|
D|-----------1--5----------|--5--1--5----------------|



Guitar I
e|-------------------------|-------------------------|
B|----------11----10-------|-------------------------|
G|----12-------------------|-------------------------|
D|-------------------------|-------------------------|
A|-------------------------|-------------------------|
E|-------------------------|-------------------------|

Guitar II
e|-------------------------|-------------------------|
B|-------------------------|-------------------------|
G|-------------------------|-------------------------|
D|-------------------------|-------------------------|
A|-----------------0--1--0-|-----------0--1----------|
D|-----------0--4----------|--4--0--4----------------|

Login or Register to remove this ad.