You're looking at an archived, read-only version of our old community forum. See our new community forum here.

FFVII - Cid's Theme

Daugreano

-----Forgotten Guitarist-----

Location: Las Cruces, New Mexico

Joined: Apr 25 2010

FFVII - Cid's Theme

http://www.gametabs.net/final

RexLeRouge

IMPACTO

Joined: Aug 15 2008

http://www.gametabs.net/final-fantasy-vii/cids-theme-0

C-C-C-C-COMBO BREAKER!

xD

auriplane

Joined: Sep 06 2008

xD

----------

Auriplane!!

Hey, you know...

Daugreano

-----Forgotten Guitarist-----

Location: Las Cruces, New Mexico

Joined: Apr 25 2010

I thought i caught a mistake around the 27th measure, but if you guys already put it up, then it's OK...No use worrying about one note, right?

Why not? Making your tabs

auriplane

Joined: Sep 06 2008

Why not? Making your tabs accurate is a good thing. Post your update and we'll put it up.

----------

Auriplane!!

Re: Why not? Making your tabs

Daugreano

-----Forgotten Guitarist-----

Location: Las Cruces, New Mexico

Joined: Apr 25 2010

Aarrgghh...Maybe i was mistaken, but i can't find a replacement for the note i don't like...everything else sounds too low or too high...

Re: Why not? Making your tabs

Daugreano

-----Forgotten Guitarist-----

Location: Las Cruces, New Mexico

Joined: Apr 25 2010

Anyway, it is the only eighth note in the 27th measure, so if you have any suggestions i'll switch it real quick...

edit: Screw it, i don't want to waste your time, plus i think the note is right , i'm just not crazy about how it sounds...

Re: Why not? Making your tabs

Asa

Location: Port Saint Lucie, FL

Joined: Aug 12 2009

   Q     E   H       W        Q     E   H       H     Q    Q      W        H     E   E   E   E   
E|-----------------|--------|-----------------|-----------------|--------|-----------------------|
B|-----------------|--------|-----------------|-----------------|--------|-----------------------|
G|-8---------------|--------|-7---------------|-----------------|--------|-------12--10--12--13--|
D|-------10--------|--------|-------8---------|-----------------|--------|-----------------------|
A|-----------10----|--------|-----------10----|-------8----11---|-10-----|-----------------------|
E|-----------------|--------|-----------------|-----------------|--------|-----------------------|
                                     .
   W        H     E   E   E   E     Q     E   H       H     E   E   E   E     w
E|--------|-----------------------|-----------------|-----------------------|--------|
B|--------|-----------------------|-----------16----|-------15------15--16--|--------|
G|-15-----|-------13--12--13--15--|-12--------------|-----------17----------|-13-----|
D|--------|-----------------------|-------13--------|-----------------------|--------|
A|--------|-----------------------|-----------------|-----------------------|--------|
E|--------|-----------------------|-----------------|-----------------------|--------|
                                 .        .
   H     E   E   E   E     Q    H        H      Q      W        H     E   E   E   E
E|-----------------------|-------------|-------------|--------|-----------------------|
B|-----------------------|-------------|-------------|--------|-----------------------|
G|-------10--12--13--10--|-12---15-----|--------12---|-15-----|-------13--12--13--15--|
D|-----------------------|-------------|-------------|--------|-----------------------|
A|-----------------------|-------------|-------------|--------|-----------------------|
E|-----------------------|-------------|-------------|--------|-----------------------|
    .                                         .                       .
   Q     E   H       H     E   E   E   E     Q     E   H       H     Q     E     W
E|-----------------|-----------------------|-15--------------|-----------------|--------|
B|-----------16----|-------15------15--16--|-------16--------|-------15----16--|-16-----|
G|-12--------------|-----------17----------|-----------17----|-----------------|--------|
D|-------13--------|-----------------------|-----------------|-----------------|--------|
A|-----------------|-----------------------|-----------------|-----------------|--------|
E|-----------------|-----------------------|-----------------|-----------------|--------|
hmm think it's like this.

Thank You, Thank You...

Daugreano

-----Forgotten Guitarist-----

Location: Las Cruces, New Mexico

Joined: Apr 25 2010

Thank you, Asa.

Switched it around then...

FFVII - Cid's Theme - Revised

edit: Awww...Guess I was rushing i changed something that didn't need changing...

Re: Thank You, Thank You...

Daugreano

-----Forgotten Guitarist-----

Location: Las Cruces, New Mexico

Joined: Apr 25 2010

There we go...

Cid'sTheme - Re-revised

Updated! http://www.gametabs.