You're looking at an archived, read-only version of our old community forum. See our new community forum here.

Santa claus no sora

tomorning

Location: Wired

Joined: Jul 24 2013

PDF
Sample replay

Re: Santa claus no sora

tomorning

Location: Wired

Joined: Jul 24 2013

attention : non-optimized version.

     rubato                                                                             
     E      E  E  E  E  E  E  E     E  E  E  E  E  E  E  E     E  E  E  E  E  E  E  E   
E||------------5-----------5-----|--------5-----------5-----|--------5-----0-----5-----|
B||------------------------------|--------------5-----------|--7-----------------------|
G||--7---------------7-----------|--7--------7-----7-----7--|-----------7-----7-----7--|
D||---------7-----7-----7-----7--|-----5--------------------|-----4--------------------|
A||--5---------------------------|--5-----------------------|--5-----------------------|
E||------------------------------|--------------------------|--------------------------|


       NH   NH   NH   NH                                                                                           
  E    E    E    E    Q    Q       E  E  E  E  E  E  E    E     E  E  E   E  Q    Q       E  E  E  E  E  E  E  E   
--------------------<>7---------|--2--------2-----3--5--5g7--|--0----------------------|--0--------0-----2--3--5--|
----------<>7-------------------|--------5-------------------|--0-----------------0----|--------3-----------------|
--6------------<>7---------2----|-----2----------------------|-------------------------|-----3--------------------|
-----<>7------------------------|--0-------------------------|--0-----2s--4--6---------|--0-----------------------|
--5-----------------------------|----------------------------|-----2---------5---------|--------------------------|
--------------------------------|----------------------------|-------------------------|--------------------------|


  E  E  E  E  Q    Q        E  E  E  E   E  E   E      E      E   E  E   E   Q    Q       E  E  E  E  E  E  E  E   
--2--------0--2---------|--10---------------9--10--10g12--|---9------------------------|--7--------------5--3-----|
--------3----------3----|------------7--------------------|--10---------10--------7----|--------0--------------3--|
-----2------------------|---------7-----------------------|---9------9-----------------|-----------7--------------|
--0---------------------|---------------------------------|------11--------------------|-----0--------------------|
-------------------4----|------9--------------------------|---9------------------------|--------------------------|
------------------------|---7-----------------------------|----------------------------|--3-----------------------|


  E  E  Q    E  E  Q       E  E  E  E  E  E  E  E     E  E  E  E   Q    Q       E  E   E  E  E  E  E   E   
--2----------0----------|--------------------5--7--|--0----------------------|--0---------------2--3s--5--|
-------------2----------|--7--------7-----8--------|--------5--7S--9----0----|------------5---------------|
--------4-------0--2----|--------6-----------------|-----4-------------------|-----0h--3-----------3------|
-----4-------2----------|-----7--------------------|--0----------------------|--0-------------------------|
-------------0----------|--5-----------------------|-------------------------|----------------------------|
--4---------------------|--------------------------|-------------------------|----------------------------|


  E  E  E  E   Q     Q        E  E  E  E   E  E   E      E      E   E   E   E   E   E   E   E   
--2--------2--------------|--10---------------9--10--10g12--|--14----------14------12--14--15--|
--------5-----(3)----3----|------------7--------------------|----------15----------------------|
-----2--------------------|---------7-----------------------|------13--------------------------|
--0-----------------------|---------------------------------|----------------------------------|
---------------------4----|------9--------------------------|--13------------------------------|
--------------------------|---7-----------------------------|----------------------------------|


     NH    NH    NH    NH    NH                         ^                                                             
     E     E     E     E     E  E  E  E     E  E  E  E  H           H        E  E  E  E     E  E  E   E  E  E  E  E   
--<>12-----------------------------------|-----------------------|-----------------5--3--|--3-----2------------5--3--|
--<>12--------------------<>12--------0--|--2--------0--2--------|-----------------------|--------2h--3--------------|
--------------------<>12-----------0-----|--0-----0-----2--------|--------------2--------|-----2------------2--------|
--------------<>12--------------2--------|-----2-----------------|-----------------------|--0------------------------|
--------<>12-----------------------------|--0--------------------|-----------------------|---------------------------|
-----------------------------------------|-----------------------|-----------------------|---------------------------|


  E  E  E   E  E  E  E  E     E  E  E   E  E  E  E  E     E  E  E  E  E  E  E  E     E  E  E  S S E  E  E  E   
--3-----2------------2--5--|--9--------10--7--------9--|--5--------5--------5--3--|--3-----2------------5--3--|
--------2h--3-----3--------|--0------------8-----------|--------2-----------------|--0----------0-------------|
-----2---------------------|--0-----0------0-----0-----|-----2-----------2--------|-----------0------2--------|
---------------------------|-----0------------0--------|--4-----------3-----------|-----2------------2--------|
--2------------------------|---------------------------|--------------------------|---------------------------|
---------------------------|---------------------------|--------------------------|--0------------0-----------|


  E  S S E  E  E  E  E  E     E  E  E  E  E  E  Q       E  E  Q     E   E  E  E     E  E  E  E  E  E  E  E   
--3------2--------------2--|--2--------3--0----------|---------------------5--3--|--3-----2-----------5--3--|
---------------------3-----|--0-----------------0----|--3-----0-----2------------|--------3-----------------|
-------2----2-----2--------|--------0----------------|--------0----(2)--2--------|-----2-----------2--------|
-----0---------------------|-----0-----------2-------|-----2---------------------|--0-----------0-----------|
---------------------------|-------------------------|--0------------------------|-----------4--------------|
--2------------2-----------|--3-----------4----------|---------------------------|--------------------------|


  E  E  E  E  E  E  E  E     E  E  E   E  E  E  E  E     E  E  E  E   E   E  E  E     E  E  E  S S E  E  E  E   
--3-----2-----------2--5--|--9--------10--7--------9--|--5-------------------5--3--|--3-----2------------5--3--|
--3-----3--------3--------|--------7------6-----6-----|--2-------------------------|--0----------0-------------|
-----------2--------------|-----7---------0-----------|--2--------2-------2--------|-----------0------2--------|
-----4--------4-----------|--6---------------0--------|--------2------0------------|-----2------------2--------|
--2-----------------------|---------------------------|-----4--------(3)-----------|---------------------------|
--------------------------|---------------------------|--2------------1------------|--0------------0-----------|


  S S E  E  E  E  E  E  E     E  E  E  E  Q    Q       S S S S S S S S S S S S S E.     H        Q    Q     
--3------2--------------2--|--2--------3--0---------|----------0-----0---------------|---------------------|
------------2--------3-----|--0-----------0----0----|--3-----3-----0---2-----0---2---|---------------------|
------2-----------2--------|--------2----------0----|------0-----0---------2-----2---|----------------2----|
----0----------0-----------|-----0-------------2----|----2---------------2-----------|---------------------|
---------------------------|------------------------|--0---------------0-------------|---------------------|
--2------------------------|--3---------------------|--------------------------------|---------------------|


  E  E  E  E  E  E  E    E     E  E  E  E  Q    Q       E  E  E  E  E  E  E  E     E  E  Q    Q    Q     
--2--------2-----3--5--5g7--|--0--------0------------|--0--------0-----2--3--5--|--2-----0----2---------|
--5-----5-------------------|--0-----0----------0----|--3-----3-----------------|--------3----3----3----|
--2--2----------------------|--1--1------------------|--3--3--------------------|-----2-----------------|
--0-------------------------|--0---------------------|--0-----------------------|--0--------------------|
----------------------------|------------------------|--------------------------|------------------4----|
----------------------------|------------------------|--------------------------|-----------------------|


   E  E  Q     E  E   E      E      E   E   E   E   E   E   E   E   
--10--------------9--10--10g12--|--14----------14------12--14--15--|
---------------7----------------|--11------11----------------------|
---------7----------------------|--11--11--------------------------|
---------7----------------------|----------------------------------|
------9-------------------------|--13------------------------------|
---7----------------------------|----------------------------------|


     NH      NH   NH   NH   NH   NH   NH   NH   NH   NH   NH   NH       ^                        
             |----3----|    |----3----|                                                          
     Q       S    S    S    S    S    S    S    S    S    S    Q        H        E   E   E   E   
--<>12-------------------------------------------------<>12--<>-----|---------------10--12--14--|
--<>12--------------------------------------------<>12--------------|--14-----------------------|
--<>12-----------------------------<>12------<>12-------------------|--12-----------------------|
--------------------<>12------<>12------<>12------------------------|--14-----------------------|
---------------<>12------<>12---------------------------------------|---------------------------|
----------<>12------------------------------------------------------|---------------------------|


   E  E   E   E   E  E   E   E     E  E   E   E   E  E   E   E     E   E   E  E   E  E   E  E   
--10---------10-------------10--|------------10-------------10--|---------10--8-------------0--|
---------10-------------10------|--------10-------------10------|----------8-----10--8---------|
------7--------------7----------|-----7--------------7----------|----------8-------------------|
--------------------------------|-------------------------------|-----10----------------12-----|
--10----------------------------|--9----------------------------|--8---------------------------|
--------------------------------|-------------------------------|------------------------------|


                                   |--3--|             
  E  E  E  E  E  E  E  E     E  E  E  E  E  H          
--2--------3--0--------2--|-----------------4--------||
--------0-----------2-----|--------------5-----------||
--------0-----------0-----|--7--------6--------------||
--------2--------2--------|--------4-----------------||
-----2--------0-----------|-----5--------------------||
--0-----------------------|--------------------------||

Literally gave me chills.

Choogly

Joined: Jul 01 2010

Literally gave me chills. Fantastic job.

That was really good!

thedstring

Nate Brooks

Location: Utah

Joined: Jan 05 2011

That was really good!

Its called arranging it. You

AhmedMalik

Joined: Jun 23 2022

Its called arranging it. You could make a jazz arrangement of subutex doctors near me To Zanarkand and that would be perfectly cool. You shouldn't really look at arrangements if you are looking for a perfect representation of the original work, which would be a transcription.

Game tabs in the interesting

MathewSolomon

Joined: Jun 18 2022

Game tabs in the interesting blog and that have lots of information about different game quests are wise. I’m sure the numerous people are able to boost and learn. Thumbs up with dissertation-service.org reviews further help hope people are able to get benefits online.

Entertainment

Pories

Joined: Oct 31 2022

It doesn't matter if it's lowered by an octave; in fact, color tunnel it can sound even more intriguing if the rhythm is lowered even more

My friends have recently been

evelynmurphy

Joined: Jan 12 2023

My friends have recently been raving about fireboy and watergirl, so I decided to check it out for myself.