You're looking at an archived, read-only version of our old community forum. See our new community forum here.

Looking For Help Tabbing a Song (Yoshi's Woolly World - Title Screen)

Binarynova

Location: Nevada

Joined: Nov 26 2007

Woah. My last forum post here was in 2011? Are you serious? :O

Well. Hi everyone! I recently picked up Yoshi's Woolly World for Wii U, and the title screen song is a wonderful little acoustic guitar arrangement. You can check it out here:
https://www.youtube.com/watch?v=tHpvvl-9NZA

So pretty! :D

I set out to tab it, when I came across another video of a pair of guys playing a duet version.
https://www.youtube.com/watch?v=RCxND-yURlU

Thanks to that video I've managed to tab out the first three patterns pretty easily! But I'm having trouble figuring out the next couple of patterns. Below you'll see what I have so far! My goal is to end up with a solo guitar arrangement of the piece.

If anyone else out there listens to the piece and has an ear/eye for tabbing, I'd appreciate any help anyone can offer. Looks like this would also be Gametabs.net's first Wii U tab!

----

Open G Tuning

Intro Riff: Play 4 times.
d||-------------------------------------|
B||---0----------0-----0--h1-----0------|
G||-----------0---------------0---------|
D||--------0--------0-----h2--------0---|
G||---0----------------0----------------|
D||-------------------------------------|


Main Riff: Play twice.
d||----------------------------------------------------------|
B||---8--7--5--3--------3-----1--------1-----1--------0------|
G||---0--0--0--0-----0-----0--0-----0-----0--------0-----0---|
D||---9--7--5--4--4-----------2--0--------------0------------|
G||----------------------------------------------------------|
D||----------------------------------------------------------|


Riff 3: Play twice.
d||------9------------7------------5------------7-------|
B||---8-----8------7-----7------5-----5------7-----7----|
G||---0------------0------------0------------0----------|
D||---9------------7------------5------------7----------|
G||-----------------------------------------------------|
D||-----------------------------------------------------|

Hi Binarynova ! This song is

ForestMarth

Location: France

Joined: Dec 31 2009

Hi Binarynova !

This song is pretty and you did the hardest part of the work so I naturally took the time to tab it out.

Here is how I play it (I changed a few things on your previous work: let me now if you don't agree with my changes)(also, I didn't take the time to write each note, but only the main chords):

Intro Riff: Play 4 times.
d||----------------------------------------|
B||---0----------0-----0--h1--------1------|
G||-----------0------------------0---------|
D||--------0--------0-----h2--2--------2---|
G||---0----------------0-------------------|
D||----------------------------------------|


Main Riff: Play twice.
d||----------------------------------------------------------|
B||---8--7--5--3--------3-----1--------1-----1--------0------|
G||---0--0--0--0-----0-----0--0-----0-----0--------0---------|
D||---9--7--5--4--4-----------2--0--------------2------------|
G||---0--0--0--0--------------0------------------------------|
D||------------------------------------------0---------------|


Riff 3: Play twice.
d||------9------------7------------5------------7-------|
B||---8-----8------7-----7------5-----5------7-----7----|
G||---0------------0------------0------------0----------|
D||---9------------7------------5------------7----------|
G||---0------------0------------0------------0----------|
D||-----------------------------------------------------|




d---0----0----0----0-----0----0---0---0---0--0---------------------------------------
B---5----7----3----3-----5----7---3---3---1--3p1----------------------1--------------
G---0----0----0----0-----0----0---0---0---0------0------0----------0-----------------
D---5----7----4----4-----5----7---4---3---2---------0h2---2-----2--------------------
G---5----7----4----------5----7---4---3---2--2---------------------------------------
D------------------2------------------------------------------0----------------------



d--0-------------0-----------------<12>------0--0--0----------<12>----------
B-----1----------8----------<12>---<12>------5--7--8----<12>--<12>----------
G--------0-------0----------<12>-------------0--0--0----<12>----------------
D-----------2/9--9---------------------------5--7--9------------------------
G----------------0---------------------------5--7--9------------------------
D---------------------------------------------------------------------------



d---0--0--0----------------------------------------2-------------------------
B---5--7--8--10--8--7---------5--------3---1---3---1-------------------------
G---0--0--0---------7--9--7---5--7--5--0---0---0---0----<12>-----------------
D---5--7--9---------7---------5--------4---2---4---0----<12>-----------------
G---5--7--9---------7---------5--------4---2---4--------<12>-----------------
D--------------------------------------------------0-------------------------

Then coming back to the intro riff :
d---------------------------------------------------------------------------
B---0---1----0---1----------------------------------------------------------
G---0---0----0---0----------------------------------------------------------
D---0---2----0---2----------------------------------------------------------
G---0---0----0---0----------------------------------------------------------
D---------------------------------------------------------------------------

And let me now if you want me to make a "real" tab with each played note and rhythm.
In this case, I'd be glad to do it and to put our two names as "transcribers" :-)

Hi ForestMarth! These chords

Binarynova

Location: Nevada

Joined: Nov 26 2007

Hi ForestMarth!

These chords sound perfect! I think I can figure out most of the picking patterns. Once I have something, I'll reply to the thread again with what I have. I'd love if you could look over it and make any other suggestions or changes before we submit it to the site.

Thanks so much!

Here we go!

Binarynova

Location: Nevada

Joined: Nov 26 2007

Alright. That was a little easier than I expected!

I'm sure I missed a few notes here and there, so if you have a chance, please take a look and see what else we need to add to it. Once you do that, I'll go ahead and clean it up a bit more, then submit it to the site.

Thanks again for your help!

Open G Tuning

Intro Riff: Play 4 times.
d||--------------------------------------|
B||--0----------0-----0--h1--------1-----|
G||----------0------------------0--------|
D||-------0--------0-----h2--2--------2--|
G||--0----------------0------------------|
D||--------------------------------------|


d||--------------------------|-----------------------------|--------------------------|-----------------------------|
B||--8--7--5--3--------3-----|--1--------1-----1--------0--|--8--7--5--3--------3-----|--1--------1-----1--------0--|
G||--0--0--0--0-----0-----0--|--0-----0-----0--------0-----|--0--0--0--0-----0-----0--|--0-----0-----0--------0-----|
D||--9--7--5--4--4-----------|--2--0--------------2--------|--9--7--5--4--4-----------|--2--0--------------2--------|
G||--0--0--0--0--------------|--0--------------------------|--0--0--0--0--------------|--0--------------------------|
D||--------------------------|-----------------0-----------|--------------------------|-----------------0-----------|


d||-----9------------7-----|-----5------------7-----|-----9------------7-----|-----5------------7-----|
B||--8-----8------7-----7--|--5-----5------7-----7--|--8-----8------7-----7--|--5-----5------7-----7--|
G||--0------------0--------|--0------------0--------|--0------------0--------|--0------------0--------|
D||--9------------7--------|--5------------7--------|--9------------7--------|--5------------7--------|
G||--0------------0--------|--0------------0--------|--0------------0--------|--0------------0--------|
D||------------------------|------------------------|------------------------|------------------------|


d||---------------------------------|---------------------------------|
B||--5--------5------7--------7-----|--3--------3------3--------3-----|
G||--------0---------------0--------|--------0---------------0--------|
D||-----5--------5------7--------7--|-----4--------4------4--------4--|
G||--5---------------7--------------|--4------------------------------|
D||---------------------------------|--------------4---2--------------|


d||---------------------------------|---------------------------------|-----------------------------------|
B||--5--------5------7--------7-----|--3--------3------3--------3-----|--1--------1-------3p1-------------|
G||--------0---------------0--------|--------0---------------0--------|--------0--------------0------0----|
D||-----5--------5------7--------7--|-----4--------4------3--------3--|-----2--------2-----------0h2---2--|
G||--5---------------7--------------|--4---------------3--------------|--2----------------2---------------|
D||---------------------------------|---------------------------------|-----------------------------------|


d||---------------0-------------|------------------------<12>--|---------------------------------|-------------------------<12>--|
B||----------1-------1----------|--8--------8-----<12>---<12>--|--5--------5------7--------7-----|--8--------8-------<12>--<12>--|
G||-------0-------------0-------|--------0--------<12>---------|--------0---------------0--------|--------0----------<12>--------|
D||----2-------------------2/9--|-----9--------9---------------|-----5--------5------7--------7--|-----9--------9----------------|
G||-----------------------------|--9---------------------------|--5---------------7--------------|--9----------------------------|
D||--0--------------------------|------------------------------|---------------------------------|-------------------------------|



d||---------------------------------|---------------------------|-----------------------------|---------------------------------|--2----------|
B||--5--------5------7--------7-----|--8-----10--8--7-----------|--5-----------3--------3-----|--1--------1------3--------3-----|--1----------|
G||--------0---------------0--------|--0------------7-----9--7--|--5-----7--5--------0--------|--------0---------------0--------|--0----<12>--|
D||-----5--------5------7--------7--|--9--9---------7--7--------|--5--5-----------4--------4--|-----2--------2------4--------4--|--0----<12>--|
G||--5---------------7--------------|--9------------7-----------|--5-----------4--------------|--2---------------4--------------|-------<12>--|
D||---------------------------------|---------------------------|-----------------------------|---------------------------------|--0----------|

You're welcome ! I'm glad you

ForestMarth

Location: France

Joined: Dec 31 2009

You're welcome ! I'm glad you appreciate my help :-)

I originally wrote you some feedback here but finally I've decided to edit this message and send you a PM ^^

I want that

thunderclan44

Joined: Feb 07 2017

That Would be awesome man