You're looking at an archived, read-only version of our old community forum. See our new community forum here.

Rayman Origins - The Lum King (theme tune)

PurpleSunDeryl

Joined: Jan 01 2013

The Lum King

This is fulfilling the request for anything from Rayman Origins (along with my own additional comment for this particular song) http://www.gametabs.net/request/gilby/anything-from-rayman-origins

Don't think some of those

hslesperance

Location: Walpole, MA

Joined: Aug 10 2008

Don't think some of those chords are right. Correct me if I'm wrong, but without the capo (since I don't have one to use) would sound like this in standard no capo tuning?

e--8-8-8--5-55-5--8-8-8--7-7777--8-8-8--5-55-5--8-7--888----
B--5-5-5--6-66-6--5-5-5--8-8888--5-5-5--6-66-6--5-8--555----
G--5-5-5--5-55-5--5-5-5--2-7777--5-5-5--5-55-5--5-7--555----
D--5-5-5--7-77-5--5-5-5--0-5555--5-5-5--7-77-7--5-5--555----
A-----------------------------------------------------------
E-----------------------------------------------------------

But this is how the intro sounds to me

e--3--3-3--3-3--3--4--5--5-5--5-5--5--8--6--6-6--6-6--------6--
B--5--5-5--5-5--5--5--6--6-6--6-6--6--6--6--6-6--6-6--8--8--6--
G--5--5-5--5-5--5--5--5--5-5--5-5--5--5--7--7-7--7-7--8--8--7--
D--5--5-5--5-5--5--5--7--7-7--7-7--7--7--8--8-8--8-8--8--8--8--
A--------------------------------------------------------------
E--------------------------------------------------------------

And the rest of the song has some different chords. Here is the first verse with the final chord as the start of the next non-vocal section, didn't bother with the rhythm like the intro, I'll leave that to you

   0:06                0:13                        0:20
e--6---------6----6----------------6-----6----6----------------
B--6----8----6----6----10----10----6--8--6----6----8-----------
G--7----8----7----7----8-----8-----7--8--7----7----8-----------
D--8----8----8----8----10----10----8--8--8----8----8-----------
A--------------------------------------------------------------
E--------------------------------------------------------------

See what you think of my changes and try to get the chords for the rest of the song. Not sure if the capo is really needed.

----------

My Original Songs - https://soundcloud.com/hslesperance