You're looking at an archived, read-only version of our old community forum. See our new community forum here.

NiGHTS Journey of Dreams Wii Jingle

HorizonsEndInc

He who does not love, does not know God, for God is Love.

Location: Here

Joined: Apr 28 2009

Song: NiGHTS Jingle
YouTube Link: NiGHTS Jingle Song begins at 1 minute and 15 seconds

I couldn't find an mp3 version of this song, so I guess I'll have to make one soon. Anyhoo, this is the song to the best of my abilities (which suck, I know). This is the main jingle of the whole series that randomly pops out seemingly everywhere in the game. I liked it, so I tried my best to tab it, and these are the results. Have fun.

Re: NiGHTS Journey of Dreams Wii Jingle

hslesperance

Location: Walpole, MA

Joined: Aug 10 2008

This should be what you are looking for,
http://www.youtube.com/watch?v=-OhzHIElHlQ

The notes are all a full step too low. Maybe you wanted it in a different key, but I suggest keeping it in the original key unless you have a midi file to back up your own tab. And even though you don't use the 3 lowest string in this song, you should still include them in the tab as it looks neater and easier to understand:

e----2--5-----0--2-------------7--5--3--2--3--5---
B-5-----------------0----2--3---------------------
G-------------------------------------------------
D-------------------------------------------------
A-------------------------------------------------
E-------------------------------------------------

e----2--5--------2----------------2--3-----2------
B-5-----------5----------2--3--5--------------5--3
G-------------------4-------------------2---------
D-------------------------------------------------
A-------------------------------------------------
E-------------------------------------------------

Fix up the tab a bit from what I just posted, note durations and such, and I'll submit it to the site for you.

----------

My Original Songs - https://soundcloud.com/hslesperance

Re: NiGHTS Journey of Dreams Wii Jingle

HorizonsEndInc

He who does not love, does not know God, for God is Love.

Location: Here

Joined: Apr 28 2009

Tab: NiGHTS Theme / Jingle
YouTube Sound Clip: NiGHTS Theme / Jingle

I knew I was too low, but I had no friggin idea of how to transcribe it a step higher without making it look too ugly. Thanks for all the help, man, it sounds perfect!

----------

Working hard and hardly working

Re: NiGHTS Journey of Dreams Wii Jingle

hslesperance

Location: Walpole, MA

Joined: Aug 10 2008

Here's your tab

http://www.gametabs.net/nights-journey-of-dreams/theme-song

----------

My Original Songs - https://soundcloud.com/hslesperance