You're looking at an archived, read-only version of our old community forum. See our new community forum here.

The Legendary Theme - Coil - Gitaroo Man solo help.

xaaxuu

Joined: Feb 17 2009

So far i got this tab going it's pretty accurate i would say but i am missing the solo i can't seem to get it down.

The solo is from 1:58 - 2:46

The video to help is here http://www.youtube.com/watch?v=4Wiu8nWMb04

The Legendary Theme(Electric) - Gitaroo Man

Tabbed by:Xaxu
Tuning:Standard

Intro
0:01 - 0:12
E--0--------------------0--------------------|
B--0--------------------2--------------------|
G--1--------------------2--------------------|
D--2--------------------2--------------------|
A--2--------------------0--------------------|
E--0--0--0--0--0--0--0-----0--0--0--0--0--0--|

Riff
0:13 - 0:24
E-----------------------------------------|
B-----------------------------------------|
G-----------------------------------------|
D-----------------------------------------|
A-----------6----------------6/11---------|
E--4--5--7-----7/9--4--5--7--------11/12--|

Main
0:25 - 1:09
E---------------------------------------------------------------------------------|
B---------------------------------------------------------------------------------|
G----------8---------------8/13----------------8---6--6b--4-------9------------9--|
D--6--7--9---9/11--6--7--9------13/14--6--7--9---9-----------6--7---9--7--6--7----|
A---------------------------------------------------------------------------------|
E---------------------------------------------------------------------------------|x2

From Main to Bridge
1:10 - 1:11
E---------|
B---------|
G--11--9--|
D---------|
A---------|
E---------|

Bridge
1:12 - 1:23
E-----------------------------|
B--9----------9--10--9--------|
G----9--11--9----------11--9--|
D-----------------------------|
A-----------------------------|
E-----------------------------|x2

1:24 - 1:35
E-------------------------------------------------|
B-------------------------------------------------|
G-11--11b--9---10--10b--8-------------11--13--11--|
D------------9------------9--7--9--11-------------|
A-------------------------------------------------|
E-------------------------------------------------|

Main
1:36 - 1:57
E---------------------------------------------------------------------------------|
B---------------------------------------------------------------------------------|
G----------8---------------8/13----------------8---6--6b--4-------9------------9--|
D--6--7--9---9/11--6--7--9------13/14--6--7--9---9-----------6--7---9--7--6--7----|
A---------------------------------------------------------------------------------|
E---------------------------------------------------------------------------------|

Outro
2:46 -
E--------------------------------------|
B--------------------------------------|
G----------8---------------8/13--------|
D--6--7--9---9/11--6--7--9------13/14--|
A--------------------------------------|
E--------------------------------------|x 2

End

e|------|
B|------|
G|--13--|
D|------|
A|------|
E|------|

paste this in notepad it looks better

Re: The Legendary Theme - Coil - Gitaroo Man solo help.

hslesperance

Location: Walpole, MA

Joined: Aug 10 2008

I tabbed out the solo. It might take a few tries to play it right. There are a lot of little bends and stuff in there. I also made some corrections on the other parts of the song and added some parts for the background guitar if you want to put that in. Feel free to make any changes.

Tab

----------

My Original Songs - https://soundcloud.com/hslesperance

Re: The Legendary Theme - Coil - Gitaroo Man solo help.

xaaxuu

Joined: Feb 17 2009

Yes i got to tab the solo out myself too, mine was a little different but i did indeed use what you gave me. Here is where it was approved http://www.ultimate-guitar.com/tabs/m/misc_computer_games/gitaroo_man_-_...

----------

Tabbers United