You're looking at an archived, read-only version of our old community forum. See our new community forum here.

Kirby's Dreamland - Grape Garden

Dsysm

Joined: Jan 06 2009

Kirby's Dreamland Grape Garden guitar tab
Tuning: DADGBe 1/2step down
(Db,Ab,Db,Gb,Bb,eb)

this is based off of the NESkimos version:
THE FORMATTING LOOKS MESSED UP, COPY & PASTE THIS INTO NOTEPAD

----------------------------------------------------
----------------------------------------------------
----------------------------------------------------
-----8-10-6-------8-10-6-------7-8-5-------7-8-5----
---6--------6---6--------6---5-------5---5-------5--
-6------------6------------5-----------5------------

----------------------------------------------------
----------------------------------------------------
----------------------------------------------------
-----5-6-3-------5-6-3-------3-5-1---1---3---5------
---3-------3---3-------3---1-------1----------------
-3-----------3-----------1-------------1---3-------- x3

----------------------------------------------------
----------------------------------------------------
----------------------------------------------------
-----8-10-6-------8-10-6-------7-8-5-------7-8-5----
---6--------6---6--------6---5-------5---5-------5--
-6------------6------------5-----------5------------

-----------------------------------------------------
-----------------------------------------------------
------------------------------7-7--------------------
-----5-6-3-------5-6-3--------6-6-10-10-10-----------
---3-------3---3-------3----6-----6--6--6------------
-3-----------3------------6-------6--6--6------------

-----------------------------------------------------
-----------------------------------------------------
-------------------------8-6-4-----------------------
-5-6-8-3--1-3-4----------------8---------------------
----------------4--6-8-9---------8-------------------
-----------------------------------------------------

-----------------------------------------------------
-----------------------------------------------------
-----------------------------------------------------
-5-6-8-3--1-3-4--------------6-6-6-5-----------------
----------------4--6-8-9-8-3-------------------------
-----------------------------------------------------

-----------------------------------------------------------------
-----------------------------------------------------------------
-----------------------------------------------------------------
10-10-6-6---8-10--8-8-5-5---7-8--6-6-3-3---5-6--5-5-1-1-1--3---5-
-6--6-6-6---6--6--5-5-5-5---5-5--3-3-3-3---3-3--1-1-1-1----------
-6--6-6-6-6-6--6--5-5-5-5-5-5-5--3-3-3-3-3-3-3--1-1-1-1--1---3---

you can figure out the order from there...there is more, this is the main tune though.
will be figuring out the rest soon. thanks for looking.
tabbed by Justin Cox.

Re: Kirby's Dreamland - Grape Garden

archard

Joined: Jan 11 2007

I highly recommend you upload the tab in a .txt. See the FAQ if you don't know how.

----------

DANG